Аккорды Виктор - Красивая и простая мелодия на гитаре

Добавлено: @romashka
Дата добавления: 01 Февраля 2021г.
Рейтинг:
0.0
Просмотров: 23
Транспонировать - +
1. Часть
1----0--------0---------------------------------------------------------------
2-------0---------------------------------------------------------------------
3----------0------------------------------------------------------------------
4----2--------2---------------------------------------------------------------
5-----------------------------------------------------------------------------
6-----------------------------------------------------------------------------

2. Часть (играем 2 раза)
1----3--------3--3--3--3--0----------------------------------------------------
2-------0----------------------------------------------------------------------
3----------0-------------------------------------------------------------------
4----2------------2--2--2--0---------------------------------------------------
5------------------------------------------------------------------------------
6------------------------------------------------------------------------------

3. Часть (зажимаем аккорд D)
1----2---------2--2--2--3--0---------------------------------------------------
2--------3---------------------------------------------------------------------
3-----------2------------------------------------------------------------------
4----0-------------0--0--0--0--------------------------------------------------
5------------------------------------------------------------------------------
6------------------------------------------------------------------------------

4. Часть
1----3--------3---5--------5---7--------7--------------------------------------
2-------0-------------0------------0-------------------------------------------
3----------0-------------0------------0----------------------------------------
4----2--------2---4--------4---6--------6--------------------------------------
5------------------------------------------------------------------------------
6------------------------------------------------------------------------------

5. Часть (повторяется 2 и 3 часть, аккорд D)
1----3--------3--3--3--3--0----2---------2--2--2--3--0-------------------------
2-------0----------------------------3-----------------------------------------
3----------0-----------------------------2-------------------------------------
4----2------------2--2--2--0---0------------0--0--0--0-------------------------
5------------------------------------------------------------------------------
6------------------------------------------------------------------------------
Наверх