Аккорды Виталий Дубинин - Наполеон

Добавлено: @romashka
Дата добавления: 09 Июля 2022г.
Рейтинг:
0.0
Просмотров: 367
Транспонировать - +
Аппликатуры переборов:
Em
|-----------------|-----------------|
|---0---0---0---0-|---0---0---0---0-|
|-----0-------0---|-----0-------0---|
|-2-------2-------|-2-------2-------|  
|-----------------|-----------------|
|-----------------|-----------------|

B / Bm
|-----------------|-----------------|
|-----0-------0---|-----0-------0---|
|---4---4---4---4-|---4---4---4---4-|
|-2-------2-------|-2-------2-------|
|-----------------|-----------------|
|-----------------|-----------------|

C
|-----------------|-----------------|
|-----------------|-----------------|
|-----0-------0---|-----0-------0---|
|---2---2---2---2-|---2---2---2---2-|
|-3-------3-------|-3-------3-------|
|-----------------|-----------------|

Am
|-----------------|-----------------|
|-----------------|-----------------|
|-----0-------0---|-----0-------0---|
|---2---2---2---2-|---2---2---2---2-|
|-0-------0-------|-0-------0-------|
|-----------------|-----------------|

D
|-----------------|-----------------|
|-----------------|-----------------|
|-----0-------0---|-----0-------0---|
|---4---4---4---4-|---4---4---4---4-|
|-5-------5-------|-5-------5-------|
|-----------------|-----------------|

  Em 
В краю теней туман, 
    B 
Молчание и тоска. 
   Em 
Легко сойти с ума 
    B 
На тёмных берегах. 
     C 
Как хочется опять 
   Bm 
Вернуться в мир живых, 
      Am 
В те мрачные края 
   D              B       B 
Летит воздушный бриг. 


    Em 
На борт взойдёт Наполеон, 
  B 
Одетый в свой сюртук. 
    Em 
Из всех тиранов только он 
      B 
В земной допущен круг. 
     C 
Во Франции родной 
    Bm 
Он свой оставит трон, 
     Am 
И взгляд его пустой 
   D            B 
Пылает вновь огнём 


Em                   B 
Странный сон в полнолуние 


   Em 
Он по земле идёт, 
    B 
Не чувствуя земли, 
   Em 
И грозно армию зовёт 
   B 
Соратников своих. 
    C 
Он должен изменить 
    Bm 
Судьбы нечестный ход, 
   Am 
За поражения мстить
    D          B 
Он павших поведёт.


Em                   B 
Странный сон в полнолуние


 Em 
Опять грохочет гром
    B
Над полем роковым,
   Em
И вновь Наполеон 
   B
Вдыхает битвы дым
 C
Бросил вызов всей вселенной,
 Bm
Славным был тот миг.
Am
Боль и горечь поражения
  D
В горле словно штык. 

            G           D
Гвардия, в бой! Небо за нас!
          C            D
Каждый герой здесь и сейчас! 

  Em
Остался только миг,
   B
Триумфом станет месть
   Em
Но тает блудный лик
    B
Вот он совсем исчез
C
Армии теней исчезли,
Bm
Шум сраженья стих.
Am
Молнией к небесной бездне
  D
Рвётся громкий крик: 

            G           D
Гвардия, в бой! Небо за нас!
          C              D
Каждый герой здесь и сейчас!


Один он стоит и вздыхает
Пока озарится восток,
И капают горькие слёзы
Из глаз на холодный песок. 

Потом на корабль свой волшебный,
Главу опустивши на грудь,
Идёт. И, махнувши рукою,
В обратный пускается путь. 

Em                 B
Странный сон в полнолуние. 

Оригинальный строй занижен до Ebm;
Начиная с третьего куплета всё играть боем.
Наверх