Аккорды Включай Микрофон! - Мой бедный шут

Добавлено: @romashka
Дата добавления: 06 Апреля 2018г.
Рейтинг:
0.0
Просмотров: 25
Транспонировать - +
Вступление
1)—------------------------------------------------------------------------
2)-------------------------------------------------------------------------
3)—---------------------------------------------------10--x--10--x--10--10-
4)—----8---x--8--x--8----10--x--10--x--10----10--x--10--x--10--10----------
5)-------8---x--8--x--8----10--x--10--x--10------8---x--8----x--8----8-----
6)-------6---x--6--x--6----8----x--8---x---8-------------------------------

Продолжение(можно играть куплет и припев)
1)—------------------------------------------------------------------------------------------------------------------------
2)-------------------------------------------------------------------------------------------------------------------------
3)—--------------------------------------------------------------------------10--10--10--10--10--10---10-------------------
4)—----8---8--8--8--8--8--8----10---10--10--10--10--10--10---10---10--10--10--10--10--10---12--12-12-12--------------------
5)-------8---8--8--8--8--8--8-----10---10--10--10--10--10--10----8-----8----8---8-----8---8----8---12--12-12-12------------
6)-------6---6--6--8--6--6--6-----8-----8----8---8----8----8---8----------------------------------------------10--10-10-12-

1)—-------------------
2)--------------------
3)—-------------------
4)—---12---12---12----
5)-------12---12---12-
6)-------10---10---10-
comments powered by Disqus
Наверх