Аккорды «White Zombie»

White Zombie
Эта американская металлическая команда была сформирована в 1985 году в Нью-Йорке, получив свое название от одноименного фильма ужасов. В состав группы входили вокалист Роб «Зомби» Стрэйкер, басистка Шон Изелт (р. 1966), барабанщик Айвэн Деплам и гитарист Том Гуэй. «White zombie» давали концерты в местных клубах и получали восторженные отклики в музыкальной андеграундной прессе. На собственном лейбле группа выпустила два альбома с музыкой в стиле «нойз-металл». Перед записью диска «Make Them Die… Читать полностью... Эта американская металлическая команда была сформирована в 1985 году в Нью-Йорке, получив свое название от одноименного фильма ужасов. В состав группы входили вокалист Роб «Зомби» Стрэйкер, басистка Шон Изелт (р. 1966), барабанщик Айвэн Деплам и гитарист Том Гуэй. «White zombie» давали концерты в местных клубах и получали восторженные отклики в музыкальной андеграундной прессе. На собственном лейбле группа выпустила два альбома с музыкой в стиле «нойз-металл». Перед записью диска «Make Them Die Slowly» Гуэй был заменен гитаристом Джоном Рикки, который помог команде избавиться от ярлыка «арт-нойз», приклеенного ей за ранние релизы. Однако, продюсер Билл Ласвелл не сумел направить мощный потенциал «White zombie» в нужное русло. Из-за разногласий по поводу стиля группы Рикки покинул состав, а его место занял Джей Юнгер, чей дебют состоялся на EP «God Of Thunder» – кавер-версии классики «Kiss». Под руководством продюсера Энди Уоллиса группа записала альбом «La Sexorcisto: Devil Music Vol. 1», с которым «White zombie» вышли, наконец, из подполья. Роб Зомби своим демоническим ревом исполнял причудливые подсознательные тексты на фоне грохочущего инструментального сопровождения, что привело в экстаз многих поклонников. Альбом оказался очень удачным, и группа отправилась в длительное турне по США. Тем временем на MTV под одобрительные комментарии Бивиса и Баттхеда постоянно крутились их клипы «Thunder Kiss 65» и «Black Sunshine». Под конец гастролей Деплама сменил Файло, но как только «White zombie» снова засели в студии, место за ударной установкой занял Джон Темпеста (экс-«Exodus» и «Testament»). Долгожданный альбом «Astro Creep 2000» был с восторгом воспринят американским рок-сообществом. Через несколько недель было продано более миллиона экземпляров этой пластинки. Сингл «More Human Than Human» стал национальным хитом, его крутили многие радиостанции, ранее избегавшие ставить композиции «White zombie». Группа снова отправилась на продолжительные гастроли. Юнгер также успел поучаствовать в двух параллельных проектах. В первом – «Yseult» - он работал с Дейвом Наварро («Red Hot Chili Peppers»), Китом Моррисом («Circle Jerks») и Грегом Роджерсом (экс–»Obsessed»). Вторым был панковский проект «Bull Taco» с Моррисом, Наварро, Чедом Смитом («Red Hot Chili Peppers») и Зандером Шлоссом («Circle Jerks»). В 1996 году вышел еще один альбом «White zombie», имевший большой коммерческий успех – «Supersexy Swingin’ Sounds». В 1998-м Роб Зомби при участии Темпеста выпустил сольник «Hellbilly Deluxe», дебютировавший в штатовских чартах под № 5. Вскоре после этого события было официально объявлено о роспуске «White zombie». Скрыть...
Популярные аккорды White Zombie:
алфавиту | просмотрам | случайно
  • ----------------------------------------|------------------------------------- 
              ----------------------------------------|------------------------------------- 
              -10/12*13--10/13*14--10/12*13--10/13*14-|-------------------------------------…
  • Tune 1/2 steps down
    
    
    Intro			        Play 4X                Play 4X
    Riff A_______________________________|          
    |-------------------|-----------------||-------3-------3-||
    |-------------------|-----------------||-------3-------3-||
    |-------------------|-----------------||-------3-------3-||
    |-4-4-7-7-9-9-10-10-|-4-4-7-7-9-9-3-3-||-2-2-2-0-2-2-2-0-||
    |-------------------|-----------------||-2-2-2-2-2-2-2-2-||
    |-2-2-5-5-7-7--8--8-|-2-2-5-5-7-7-1-1-||-0-0-0-3-0-0-0-3-||…
  • INTRO:
    E|----------------------------|---------------------------|
    B|----------------------------|---------------------------|
    G|-5-5-4--5-5-4--5-5-4--5-5-4-|-5-5-5-4-------------------|
    D|-x-x-x--x-x-x--x-x-x--x-x-x-|-x-x-x-x-------------------|
    A|-3-3-2--3-3-2--3-3-2--3-3-2-|-3-3-3-2-------------------|
    E|----------------------------|---------------------------|
    
    E|----------------------------|---------------------------|
    B|----------------------------|---------------------------|
    G|-5-5-4--5-5-4--5-5-4--5-5-4-|-5-5-5-4-------------------|
    D|-x-x-x--x-x-x--x-x-x--x-x-x-|-x-x-x-x-------------------|
    A|-3-3-2--3-3-2--3-3-2--3-3-2-|-3-3-3-2-------------------|
    E|----------------------------|---------------------------|
    
    
    CHORUS:
    E|-----------------------------|-----------------------------|
    B|-----------------------------|-----------------------------|
    G|-----------------------------|-----------------------------|
    D|-3h5--5-5--3h5--5-5--3h5-3-0-|-3h5--5-5--3h5--5-5--3h5-3-0-|
    A|-3h5--5-5--3h5--5-5--3h5-3-0-|-3h5--5-5--3h5--5-5--3h5-3-0-|
    E|-3h5--5-5--3h5--5-5--3h5-3-0-|-3h5--5-5--3h5--5-5--3h5-3-0-|
    
    E|-----------------------------|-----------------------------|
    B|-----------------------------|-----------------------------|
    G|-----------------------------|-----------------------------|
    D|-3h5--5-5--3h5--5-5--3h5-3-0-|-3h5--5-5--3h5--5-5--3h5-3-0-|
    A|-3h5--5-5--3h5--5-5--3h5-3-0-|-3h5--5-5--3h5--5-5--3h5-3-0-|
    E|-3h5--5-5--3h5--5-5--3h5-3-0-|-3h5--5-5--3h5--5-5--3h5-3-0-|
    
    
    Fill…
  • [INTRO]  : (Fill_4x;C#)x2 ; (A;A#)x4 ; C# ; (Fill_4x;C#)x2 ; (A;A#)x4 
              
              e-||---------------{ Fill }---------------------[x4]|--{ C# }---[x2]| 
              b-||-----------------------------------------------||--------------||…
  • (Tune down 1.5 steps)
                                           / (Play 3 times) 
    |_______________|R__|________________________________|_________________
    |_______________|E__|________________________________|_________________
    |_______________|P__|________________________________|_________________
    |_______________|E__|________________________________|_________________
    |___4_4_4_4_4___|A__|__3___2___3___2___3___2___3___2_|__3___2___3___2__
    |___2_2_2_2_2___|T__|__1___0___1___0___1___0___1___0_|__1___0___1___0__
    |…
  • Tune down a minor third (C#, F#, B, E, G#, C#) 
               
              INTRO (play 4 times) 
              e ------------------------------------------- 
              B ------------------------------------------- 
              G -------------------------------------------…
  • Intro: 
                                                2x                  2x 
              G|-----------------------------------|-------------------| 
              D|*---------------------------------*|*-----------------*|…
  • Intro Main Verse Riff                   Ending #1         Ending #2 
              
              |----|---------------------------------|-----------------|-----------| 
              |----|---------------------------------|-----------------|-----------|…
  • Main riff
    e|---/9---(9)---/11---(11)---/13---(13)--/14/15---|
    B|---/9---(9)---/11---(11)---/13---(13)--/14/15---|
    G|--(/9)--(9)--(/11)--(11)--(/13)--(13)--/14/15---|
    D|----------------------------------------------------|
    A|----------------------------------------------------|
    E|----------------------------------------------------|
    
    Pre-chorus
    e|------------------------|
    B|------------------------|
    G|------------------------|
    D|------------------------|
    A|--2--2-----X------2--2--|
    E|--0--0-----X---0--0--0--|…
  • Main Riff 
              G------------------------------- 
              D------------------------------- 
              A------------------------------- 
              D--0-3-5-6--6500-3--56-65 
              
              Bridge 
              G-----------------…
  • Intro: 
              E-------------------------------|------------------------------------------|--- 
              B-------------------------------|------------------------------------------|--- 
              G-------------------------------|------9-8------------------9-8------------|---…
  • Tune 6 string to D
              Riff 1
    
              P.M.
              ---------------------------------------------------
              ---------------------------------------------------
              ---------------------------------------------------…
  • e-|--7-7---------------7--------------3--------------2-------| 
              B-|--8---8-----------8---8----------4---4----------3---3-----| 
              G-|--9-----9-------9-------9------5-------5------4-------4---|…
  • Fig. 1 x4
    e|-------------|-----------|-------------|------------|
    B|-------------|-----------|-------------|------------|
    G|-------------|-----------|-------------|--------10--|
    D|--5-----6-5--|------6-5--|--5-----5-5--|--5--8--10--|
    A|--5-5-5-6-5--|--5-5-6-5--|--5-5-5-6-5--|--5--8---8--|
    E|--3-3-3-4-3--|--3-3-4-3--|--3-3-3-4-3--|--5--6------|…
  • (4/4)(88 bpm)
    Tuned one and a half steps down (low to high: Db Gb B E)
    
    ~ - full bend
    
    Riff 1: (x2)(0:25)
    |------------------|------------------|------------------|-------------------|
    |------------------|------------------|------------------|-------------------|
    |------------------|------------------|------------------|----------------12-|
    |0-0-10-~-~-0-10-~-|0-0-10-~-~-0-10-~-|0-0-10-~-~-0-10-~-|0-0-10-~-~-0-10----|
    
    Rest…
  • Beginning: 
                                
              e:------|----------------------------------------- 
              B:------|----------------------------------------- 
              G:------|-----------------------------------------…
  • ------------------------------------------------------------------------------ 
              ------------------------------------------------------------------------------ 
              ------------------------------------------------------------------------------…
  • INTRO...(GUITAR STARTS OFF THEN COME IN)
    G|-----------------------------------------------|
    D|-----------------------------------------------|
    A|2--1-------------------------------------------|
    E|-3--2--0-0-00-00-0--00-00-0-00-00-0-00-00-0-00-|
    
    G|--------------------------------------|
    D|--------------------------------------|
    A|---------------------------------2--1-|
    E|00-0-00-00-0-00-00-0-00-00-6-0-6--3--2|
    
    
    Verses…
Наверх