Аккорды XXXTentacion - The Remedy for a Broken Heart

Добавлено: @romashka
Дата добавления: 12 Января 2022г.
Рейтинг:
0.0
Просмотров: 154
Транспонировать - +
Вступление:
E|-------|---------|-------|-----------------| 
B|-1--0--|-1---0---|-1--0--|---0---0---0---0-| 
G|-2--0--|-2-------|-2--0--|-2---2---2---2---| 
D|-------|-3-------|-------|-----------------| 
A|-0-----|---------|-0-----|-----------------| 
E|----3--|-----3---|----3--|-1---------------|

Куплет(×2):
E|-------|---------|-----------------| 
B|-1---3-|-0---1---|---0---0---0---0-| 
G|---2---|----0----|-2---2---2---2---| 
D|---2---|---0-----|-----------------| 
A|-0-----|---------|-----------------| 
E|-------|-3-------|-1---------------|

С ударом:
E|--------|----------|-----------------| 
B|-1----3-|-0------1-|---0---0---0---0-| 
G|-2------|-0--------|-2---2---2---2---| 
D|--------|----------|-----------------| 
A|-0------|----------|-----------------| 
E|----Х---|-3---Х----|-1---------------|

Играется обычным щипком с каподастром на 1-м ладу.
Наверх