Аккорды «Яд Добра»

Яд Добра
Популярные аккорды Яд Добра:
алфавиту | просмотрам | случайно
  • Intro: Am C Em Em (перебором- бас + 3,2,3,1,2,3,2) 
    
    Куплет №1:
      Am
    Я падал, но вставал
       Am
    И не сворачивал с пути,
      C
    И тем кто подходил
       C 
    Я говорил "нет отойди"
      Em
    Наше с тобой царство
       Em
    Стоит…
  • Аккорды: Am C Em
    
    Припев:
    Я иду спотыкаясь, но улыбка до ушей
    И никто не узнает, как хреново на душе
    С болью в сердце я улыбаюсь как могу
    С комом в горле, но никому не расскажу
    
    Я иду спотыкаясь, но улыбка до ушей
    И…
  • Dm             
    А ты скажи, где мои юности года ?  
              G
    Покажи, откуда взять обратно
                Am
    Пролетели незаметно на раз два 
    Вспоминаю те картины неоднократно .
                 Dm             
    Перед глазами,…
  • [На протяжении всей песни]
    e----------------------------------7--------------------------------8-------|
    b-------8--7---------8----7--------------8--7--------8----7--------------8--|
    g-------------9----------------9---------------9---------------9------------|
    d---------------------------------------------------------------------------|
    a---------------------------------------------------------------------------|
    e---------------------------------------------------------------------------|
    
    e----------------------7--------------------------------8-------------------|
    b---------8----7--------------8--7--------8----7----------------------------|
    g-------------------9---------------9---------------9-----------------------|
    d---------------------------------------------------------------------------|
    a---------------------------------------------------------------------------|
    e---------------------------------------------------------------------------|
    
    C
    Давай…
  • Abm Ebm
    Плывёт конвой
    Порой
    Так сильно тянет домой
    Какой ценой
    Большой
    Закончен где-то там бой
    
    Плывёт конвой
    Порой
    Так сильно тянет домой
    Какой ценой
    Большой
    Закончен где-то там бой
    
    Разорвано дуло
    Он еле…
  • E                          Em            B Am D 
    За горизонт уходит солнце, наступает ночь 
    E                                  B  Am 
    Тяжко на душе, лишь мать сможет помочь 
    Chicagoo 
     
    F 
    За горизонт уходит солнце,…
Наверх