Аккорды Зарница - Корги

Добавлено: @romashka
Дата добавления: 28 Мая 2022г.
Рейтинг:
0.0
Просмотров: 21
Транспонировать - +
Intro: G G Em D

Verse 1:
G                     Em D
Тает сахарок в ладони,
G                     Em D
Мандариновые корки.
G                     Em D
По химии, что между нами,
G                     Em D
У меня одни пятерки.

Bridge:
Chord: G
e:--------------------------------|
b:--0-0---0-0---0----0-0---0-0---0|
g:2-----2-----2----2-----2-----2--|
d:--------------------------------|
A:--------------------------------|
E:--------------------------------|

Bm           D       Em  C  D
Мандариновые корки, корки

Chord: G
e:----------------------------------|
b:--0-0---0-0---0-------------------|
g:2-----2-----2---------0-----------|
d:------------------2-2---0-0-------|
A:----------------------------------|
E:----------------------------------|

Bm                  D     C
Хочу погладить твою корги


Chorus:
    D  G   Bm   Em
Иди за мной,
     D
Я приведу тебя туда,
        G             Bm     Em
Где я и ты, пластинка Cure,
      D                G
и нам больше некуда спешить

Verse 2:
G                         Em D
Как сдавший сессию студент
G                       Em D
Рвет из тетрадей листики,
G                    Em D
Тяни к себе мое лицо
G                     Em D
Учить меня лингвистике.

Bridge:
e:--------------------------------|
b:--0-0---0-0---0----0-0---0-0---0|
g:2-----2-----2----2-----2-----2--|
d:--------------------------------|
A:--------------------------------|
E:--------------------------------|


e:5-7-7-5-7-7-5-7--5-7-7-5-7-7-5-7|
b:--------------------------------|
g:--------------------------------|
d:--------------------------------|
A:--------------------------------|
E:--------------------------------|


Bm             D       C   D
У меня одни пятерки, пятерки

Chord: G
e:----------------------------------|
b:--0-0---0-0---0-------------------|
g:2-----2-----2---------0-----------|
d:------------------2-2---0-0-------|
A:----------------------------------|
E:----------------------------------|

e:5-7-7-5-7-5-7-7-5-7-----5---------|
b:--------------------7-7---5-5-5---|
g:----------------------------------|
d:----------------------------------|
A:----------------------------------|
E:----------------------------------|

Bm                  D     C
Хочу погладить твою корги


Chorus:
    D  G   Bm   Em
Иди за мной,
     D
Я приведу тебя туда,
        G             Bm     Em
Где я и ты, пластинка Cure,
      D                G
и нам больше некуда спешить. 
Наверх