Аккорды Заточка - Держи в курсе

Добавлено: @romashka
Дата добавления: 11 Октября 2021г.
Рейтинг:
0.0
Просмотров: 51
Транспонировать - +
Intro
|----------9-------------------|
|----9h12p9--9/7-7-------------|
|---------------9--9/6-6-------|
|---------------------9--9/6-6-|
|---------------------------9--|
|------------------------------|

C#m(IV)
Крым наш — это кайфово!
Могли забрать и Киев!
Я выбираю Вову,
И все вокруг такие:
A(V)           C#m(IV)
Оооо...  Ну и долбоеб!
B                 A(II)            C#m(IV)
Че сразу долбоеб? Просто родину люблю!
C#m(IV)
Фу, бля, блатняк тупой!
Фу, бля, батя бьет маму!
Причем тут, бля, ковбои?
Ты ж, бля, не этот самый!
A(V)                 C#m(IV)
Оооо...  Гля, че за долбоеб!
B                 A(II)              C#m(IV)
Че сразу долбоеб? просто плохо сдал ЕГЭ

E(IV)          Ab/G#
Выпусти джина, че просто так сидеть?
C#m(IV)       B(VII)      A(V)
Напиши нам, не держи в себе.
E(IV)               Ab/G#
Бесит матершина, или не правы тут все —
C#m(IV)     A(V)        B(VII)
Напиши нам, держи в курсе.

E(IV), Ab/G#, C#m(IV), B(VII), A(V)
E(IV), Ab/G#, C#m(IV), A(V), B(VII)

C#m(IV)
Друг из госаппарата
Сказал мне по секрету:
Завтра солдаты НАТО
Поработят планету.
A(V)                         C#m(IV)
Оооо...   Встречайте! Это долбоеб!
B                 A(II)            C#m(IV)
Че сразу долбоеб? смысл другу мне пиздеть?
C#m(IV)
Когда воскреснет Ельцин
Поднимем наше знамя,
Испепелим пришельцев,
Киберславяне с нами!
A(V)                     C#m(IV)
Оооо...   Да перед нами долбоеб!
B                 A(II)            C#m(IV)
Че сразу долбоеб? Просто люблю REN-TV

E(IV)          Ab/G#
Выпусти джина, че просто так сидеть?
C#m(IV)       B(VII)      A(V)
Напиши нам, не держи в себе.
E(IV)               Ab/G#
Бесит матершина, или не правы тут все —
C#m(IV)     A(V)        B(VII)
Напиши нам, держи в курсе.

E(IV), Ab/G#, C#m(IV), B(VII), A(V)
E(IV), Ab/G#, C#m(IV), A(V), B(VII)

     Ин-тер-нет  за этим и придумали,         чтобы ругаться и        скидывать фотки    ню.
|---------------------------------------------------------------------------------------------|
|---------------------------------------------------------------------------------------------|
|--------9---8--------6----------6------------6--------9----8--------6----6-6--8----8-8--9----|
|--------------------------9---------------9--------------------------------------------------|
|--7--7----7----7--7----7-----7-----7--7----------7--7----7-----7--7--------------------------|
|---------------------------------------------------------------------------------------------|
                                                       Браток, все для твоего счастья!
|---------------------------------------------------------------------------------------------|
|---------------------------------------------------------------------------------------------|
|--------9---8--------6----------6------------6--------2----2/4/2-----4------6-----6/4--------|
|--------------------------9---------------9-----------2----2/4/2-----4------6-----6/4--------|
|--7--7----7----7--7----7-----7-----7--7----------0--0----0--------2-----2/4-----4------------|
|---------------------------------------------------------------------------------------------|
      Ин-тер-нет  за этим и придумали,     чтоб    ты    писал сюда    всякую хуйню.
|---------------------------------------------------------------------------------------------|
|---------------------------------------------------------------------------------------------|
|--------9---8--------6----4-----6---------4/6----------9----8--------6--6-6--8--8-8----------|
|---------------------------------------------------------------------------------------------|
|--------7---6--------4----2-----4---------2/4----------7----6--------4--4-4--6--6-6----------|
|--0--0----0----0--0----0-----0-----0--0----------0--0-----0----0--0--------------------------|
                                                      Так чего же ты ждешь?  угощайся!
|---------------------------------------------------------------------------------------------|
|---------------------------------------------------------------------------------------------|
|--------9---8--------6----4-----6---------4/6---------2----2/4-----4--4-4---6-----4/2--------|
|------------------------------------------------------2----2/4-----4--4-4---6-----4/2--------|
|--------7---6--------4----2-----4---------2/4----0--0----0-------0---------------------------|
|--0--0----0----0--0----0-----0-----0--0------------------------------------------------------|


E(IV)          Ab/G#
Выпусти джина, че просто так сидеть?
C#m(IV)       B(VII)      A(V)
Напиши нам, не держи в себе.
E(IV)               Ab/G#
Бесит матершина, или не правы тут все —
C#m(IV)     A(V)        B(VII)
Напиши нам, держи в курсе.

E(IV), Ab/G#, C#m(IV), B(VII), A(V)
E(IV), Ab/G#, C#m(IV), A(V), B(VII)

Аккорды:
Куплет
C#m        A(V)      B       A(II)
|--4---| |------| |------| |------|
|--5---| |--5---| |--4---| |--2---|
|--6---| |--6---| |--4---| |--2---|
|--6---| |--7---| |--4---| |--2---|
|--4---| |------| |--2---| |------|
|------| |--5---| |------| |------|

Припев
  E(IV)    Ab/G#    B(VII)       
|--4---| |--4---| |--7---|
|--5---| |--4---| |--7---|
|--4---| |--5---| |--8---|
|--6---| |--6---| |--9---|
|--7---| |--6---| |--9---|
|------| |--4---| |--7---|

Строй - EADGBE (классический). Обозначения аккордов указаны под песней.
Наверх