Аккорды Заточка - Не на ту

Добавлено: @romashka
Дата добавления: 14 Декабря 2021г.
Рейтинг:
0.0
Просмотров: 65
Транспонировать - +
Перебор для куплета:
           D               A             Em(II)            D
E|---------2---------------0---------------3---------------2----------|
B|-------3-----3---------2---2-----------5-----5---------3-----3------|
G|-----2---------2-----2-------2-------4---------4-----2---------2----|
D|---0---------------2-----------2---2---------------0----------------|
A|--------------------------------------------------------------------|
E|--------------------------------------------------------------------|
        G(III)             D               A               D
E|-------------------------2---------------0---------------2----------|
B|---------2-------------3-----3---------2---2-----------3-----3------|
G|-------4-----4-------2---------2-----2-------2-------2---------2----|
D|-----5---------5---0---------------2-----------2---0----------------|
A|--------------------------------------------------------------------|
E|---0----------------------------------------------------------------|

Бой:
(вниз, вверх, глушить, вверх, вверх, глушить, вверх)
|---------------------------------------------------------------------|

Припев: (бой)
D                A                    Bm
Ну и нахуй кому нужен был твой диплом?
               G(III)               D
Да и этот офис тоже бы нахуй пошёл!
                          A                Bm
Щас бы в плацкарте в дурака играть на бухло
        G(III)                   D
Попиздиться на парковке с бомжом!
               A                   Bm
Сорваться на юга с братвой со двора
           G(III)              D
Нырять с обрыва прямо в темноту!
                   A            Bm
Поставил ты не на ту лошадку, брат!
         G(III)
Ой, не на ту, слышишь, не на ту!

Куплет: (перебор)
D               A
Трусь у кулера с утра до утра
Em(II)                D
Нахуй некого послать: одни директора
G(III)           D
Сына видел в роддоме последний раз
A                       D
Говорят, пошёл в пятый класс
D                    A
Две мои грыжи гордо тянут рабочий груз
Em(II)               D
И геморрой больше тарелки НТВ-Плюс
G(III)            D
Ссаный галстук душит, будто петля!
A                D
Отвалите, суки, бля

Ознакомитесь со съеденным мною борщом
Если я увижу график хоть один ещё
Эх, схватить бы за усы Петра Ильича
И изо всех сил закричать

Припев: (бой)
Ну и нахуй кому нужен был твой диплом?
Да и этот офис тоже бы нахуй пошёл!
Щас бы в плацкарте в дурака играть на бухло
Попиздиться на парковке с бомжом!

Сорваться на юга с братвой со двора
Нырять с обрыва прямо в темноту!
Поставил ты не на ту лошадку, брат!
Ой, не на ту, слышишь, не на ту!

Куплет: (перебор)
В нашем учреждении мой пост высок
Но все хотят казённых денег отщипнуть кусок
Я им говорю: "Хапуги, не лезьте в бюджет
Мне самому не хватит на джет!"

Как тут спокойно воровать, обходя УК
Когда у стариков всегда протянута рука?
Я говорю: "Милок, за что ты ведёшь борьбу?
Ты ж одной ногою в гробу"

Выше моего давленья только облака
И толщиной с садовый шланг венка у виска
А у моей жены на шее звенит
Бюджет стадиона Зенит

Алло, Семён Сергеич, вот ты мне скажи
Все эти яхты, гаражи — разве ж это жизнь?
Неужто б ты не поменял на свободы год
Изжогу от вдовы Клико?

Припев: (бой)
Ну и нахуй кому нужен был твой диплом?
Да и этот офис тоже бы нахуй пошёл!
Щас бы в плацкарте в дурака играть на бухло
Попиздиться на парковке с бомжом!

Сорваться на юга с братвой со двора
Нырять с обрыва прямо в темноту!
Поставил ты не на ту лошадку, брат!
Ой, не на ту, слышишь, не на ту!

Em(II)  
E|--3--|
B|--5--|
G|--4--|
D|--2--|
A|-----|
E|-----| 

Перебор для куплета указан наверху, рисунок боя там же. 
Аккорд Em(II) ставится не так, как мы "привыкли", 
его аппликатура указана под песней. 
Строй стандартный - EADGBE. 
Наверх