Аккорды «Zebrahead»

Zebrahead
Группа Zebrahead из Оранж Каунти, штат Калифорния - американская поп-панк\рэпкор\хеппикор группа, образованная в городке Ла Хабра (La Habra), штат Калифорния. Организована в 1996 году вокалистом/гитаристом Джастином Мауриэлло (Justin Mauriello, ранее игравшим в Once There), гитаристом Грегом Бергдорфом (Greg Bergdorf, ранее игравшим в группе 409), бас-гитаристом Беном Осмундсоном (Ben Osmundson, ранее игравшим в 3-Ply) и барабанщиком Эдом Удхусом (Ed Udhus, ранее также игравшим в группе 409).… Читать полностью... Группа Zebrahead из Оранж Каунти, штат Калифорния - американская поп-панк\рэпкор\хеппикор группа, образованная в городке Ла Хабра (La Habra), штат Калифорния. Организована в 1996 году вокалистом/гитаристом Джастином Мауриэлло (Justin Mauriello, ранее игравшим в Once There), гитаристом Грегом Бергдорфом (Greg Bergdorf, ранее игравшим в группе 409), бас-гитаристом Беном Осмундсоном (Ben Osmundson, ранее игравшим в 3-Ply) и барабанщиком Эдом Удхусом (Ed Udhus, ранее также игравшим в группе 409). Четверо музыкантов, репетировавшие в одном помещении, обнаружили, что интересуются одними и теми же звуковыми экспериментами, и вскоре стали друзьями. Решив, что они хотели бы дальше продолжать свои музыкальные эксперименты, Грег, Джастин, Бен и Эд покинули группы, в которых играли, и сформировали новую группу, которая получила название Zebrahead. Группа, воодушевленная выступлениями таких групп, как Fugazi и The Descendents, решила, что работать в популярном тогда жанре ska-punk - не для них, и вместо этого начала экспериментировать с элементами хип-хопа, внедряя их в свою музыку. Ребята даже пригласили рэппера Али Табатабе (Ali Tabatabaee), который был включен в состав группы. После выпуска диска Zebrahead на инди-лейбле Doctor Dream Records в мае 1998 году группа перешла на популярный лейбл Columbia Records, чтобы выпустить свой первый полноценный альбом Waste of Mind, который увидел свет в том же году. В середине 2000 года был выпущен альбом Playmate of the Year, а в 2001 году был выпущен диск Stupid Fat Americans (эксклюзивно на территории Японии). Zebrahead гастролировали по Европе с группой Green Day в поддержку своих альбомов и дисков, а также принимали участие в различных музыкальных фестивалях. В это же время они принимали участие в совместных концертах с такими группами, как Less Than Jake, Kottonmouth Kings, 311, MxPx, Reel Big Fish, Unwritten Law и Goldfinger. В 2003 году увидел свет новый полноценный альбом группы - MFZB (aka Mother Fucking Zebrahead Bitch!), в поддержку которого группа дала большое количество концертов в Японии, где альбом быстро стал золотым. Zebrahead принимали активное участие в различных музыкальных фестивалях, включая Summer Sonic Festival и Punkspring, а также были хедлайнерами ряда шоу в Японии. Вскоре после японского турне 2004 года лидер группы, певец и гитарист Мауриэлло решил покинуть группу, чтобы посвятить себя новым интересам (что в результате привело к созданию новой группы I Hate Kate). В декабре 2004 года эту новость через официальный вебсайт группы узнали фанаты, которые были крайне расстроены этим фактом, так как именно баланс между пением и рэпом (в исполнении Мауриэлло и Табатабе) являлся визитной карточкой группы. В тот же месяц в группу был приглашен певец Мэтти Льюис (ранее игравший в группе Jank 1000). Льюис приехал в Калифорнию, чтобы познакомиться с остальными участниками группы, и вскоре был официально принят в состав Zebrahead в качестве одного из лидеров. Это случилось 12 марта 2005 года. Заполучив нового вокалиста, группа выпустила свой пятый студийный альбом Broadcast to the World 22 февраля 2006 года в Японии. Диск пользовался огромной популярностью и стал золотым в Японии всего за один месяц. После турне по Европе и Великобритании в начале июня 2006 года группа также учавствовала в Warped Tour. 3 июля 2006 года их альбом Broadcast to the WOrld был выпущен в Европе на немецкой звукозаписывающей компании SPV. 24 октября 2006 года состоялся долгожданный релиз в Америке и Канаде на новом лейбле ICON MES. Начиная с марта 2007 года, группа провела 2 месяца, записывая материал для их пока еще не имеющего названия нового студийного альбома. В мае 2007 года группа провела тур по Европе совместно с MxPx, а также являлась хедлайнером турне по Великобритании. В июне-июле 2007 года прошло турне группы по США, где Zebrahead выступали на разогреве у Unwritten Law вместе с группой Bullets and Octane. После окончания турне группа приступила к усиленной работе над новым альбомом, выпуск которого запланирован на февраль 2008 года. ДИСКОГРАФИЯ Альбомы Zebrahead (1998) Waste of Mind (1998) Playmate of the Year (2000) MFZB (2003) Waste of MFZB (2004) Broadcast to the World (2006) Phoenix (2008) Panty Raid (2009) Get Nice! (2011) Диски Stupid Fat Americans (2001, Япония) Синглы Get Back (1998) The Real Me (1999) Feel This Way (Japan Exclusive) (1999) Playmate of the Year (2000) Now Or Never (Japan Exclusive) (2001) Into You (Japan Exclusive) (2003) Rescue Me (2004) Hello Tomorrow (2005) Are You For Real? (Japan Exclusive) (2004) Anthem (2006) Postcards From Hell (2006) Broadcast To The World (2007) Клипы Get Back (1998) Playmate Of The Year (2000) Into You (2003) Rescue Me (2003) Hello Tomorrow (2004) Are You For Real? (2004) Anthem (2006) Postcards From Hell (2006) Broadcast To The World (2006) Karma Flavored Whisky (2007) Скрыть...
Популярные аккорды Zebrahead:
алфавиту | просмотрам | случайно
  • Verses:
    
    E|----------
    B|----------
    G|----------
    D|-5-4-4----
    A|-5-4-4----
    E|-3-2-2----
    
    Chorus:
    
    E|--------------------
    B|--------------------
    G|-------5-5-3-3------
    D|-3-3-3-5-5-3-3------
    A|-3-3-3-3-3-1-1------
    E|-1-1-1--------------
    
    Post-chorus:
    
    E|-----------------------------------------------------------------------------------
    B|-----------------------------------------------------------------------------------
    G|-----------------------------------------------------------------------------------
    D|-2-2----2-2----2-2----2-2----2-2--------2-2-------2-2-------2-2--------------------
    A|-2-2----2-2----2-2----2-2----2-2---3----2-2---3---2-2---3---2-2---3----------------
    E|-0-0----0-0----0-0----0-0----0-0-1---1--0-0-1---1-0-0-1---1-0-0-1---1--------------
    
    Solo…
  • Riff 1:
    =======
    
    G:------------11---------
    D:---11----------9h10h11- Listen to CD
    A:------8-9-9------------ to get timing
    E:-9---------------------
    B:-----------------------
    
    'Hey kid where you runnin' off to?':
    ====================================
    
    G:-------------------------------
    D:-------------------------------
    A:-9--x-9-9-9-8-7-6--x-6-6-6-7-8-
    E:-------------------------------
    B:-------------------------------
    
    Bridge:
    =======
    
    G:-------------------------
    D:-------------------------
    A:---------9-11-9-11--9-11-
    E:-7/9-9-------------------
    B:-------------------------…
  • Intro and verses: (guitar one)
    
     
    
    E|--------------------------------
    B|--------------------------------
    G|--------2-2----4-4-4-4-4-4-4-4--
    D|-2-2---2-2----4-4-4-4-4-4-4-4---
    A|-2-2---0-0----2-2-2-2-2-2-2-2---
    E|-0-0----------------------------…
  • Stnadard Tuning
    
    Intro
    =========
    1)-3-3-3-3-3-3-3-3-3-3-3-3-8--8--8--8--8--8--8--8--8--8--8--8--
    2)-3-3-3-3-3-3-3-3-3-3-3-3-8--8--8--8--8--8--8--8--8--8--8--8--
    3)-4-4-4-4-4-4-4-4-4-4-4-4-9--9--9--9--9--9--9--9--9--9--9--9--
    4)-5-5-5-5-5-5-5-5-5-5-5-5-10-10-10-10-10-10-10-10-10-10-10-10-
    5)-------------------------------------------------------------
    6)-------------------------------------------------------------
    
    1)-3-3-3-3-3-3-3-3-3-3-3-3-10-10-10-10-10-10-10-10-10-10-10-10-
    2)-3-3-3-3-3-3-3-3-3-3-3-3-10-10-10-10-10-10-10-10-10-10-10-10-
    3)-4-4-4-4-4-4-4-4-4-4-4-4-11-11-11-11-11-11-11-11-11-11-11-11-
    4)-5-5-5-5-5-5-5-5-5-5-5-5-12-12-12-12-12-12-12-12-12-12-12-12-
    5)-------------------------------------------------------------
    6)-------------------------------------------------------------
    
    Riff…
  • g------------------------4---
    d-44-22--44-22--44-22-22-4-(8x)
    a-44-22--44-22--44-22-22-2---
    E-22-00--22-00--22-00-00-----
    
    while Justin is singing u just let this ring g-4-…
  • e---------------------------------------------------------------------------|
    B---------------------------------------------------------------------------|
    G---------------------------------------------------------------------------|
    D---------------------------------7-----7-----7-----7-----7---7-------------|
    A-7-----7-----7-----7-----7---7---5-5-5-5-5-5-5-5-5-5-5-5-5-5-5-5-----------|
    E-5-5-5-5-5-5-5-5-5-5-5-5-5-5-5-5-------------------------------------------|
    
    
    e---------------------------------------------------------------------------|
    B---------------------------------------------------------------------------|
    G---------------------------------------------------------------------------|
    D---------------------------------7-----7-----7-----7-----7---7-------------|
    A-7-----7-----7-----7-----7---7---5-5-5-5-5-5-5-5-5-5-5-5-5-5-5-5-----------|
    E-5-5-5-5-5-5-5-5-5-5-5-5-5-5-5-5-------------------------------------------|…
  • Tuning: Standard
    
    Intro - guitar 1
    e|----------------------------------------------0-0--------------------------|
    B|----------------------------------------------0-0--------------------------|
    G|--1111x---x9-9x77777------1111----------9-9------9-11----------------------|
    D|--1111x7-7x9-9x77777--x5--111111111111119-9------9-11----------------------|
    A|---9-9x7-7x7-7x55555-------9-9-9-9-9-9-97-7------7--9----------------------|
    E|-------5-5-----------------------------------------------------------------|
    Intro…
  • Standard tuning
    
    Intro
    =======
    1)--9---9--------8-
    2)--9------9-----8-
    3)-10---------9--8-
    4)-11-----------10-
    5)-11-----------10-
    6)--9------------8-
    
    Riff 1
    =======
    1)-----------------
    2)-----------------
    3)-----------------
    4)-4-4-3-6-6-3-4-3-
    5)-4-4-3-6-6-3-4-3-
    6)-2-2-1-4-4-1-2-1-…
  • Intro and verses (guitar one):
    
    E|-----------------------------------
    B|-----------------------------------
    G|-----------------------------------
    D|-------------5---------------------
    A|---7---7-5-----7---7---7---7-5-----
    E|-5---8-----7-----5---8---5-----7---
    
    Intro…
  • Intro:
    
    E|----------------------------------------------
    B|----------------------------------------------
    G|---------4---1---2-1----------4-------------
    D|-2h0-2---2---2-------2h0-2---2---2---4--
    A|-----------------------------------0---2-----
    E|----------------------------------------------…
  • Standard tuning
    
    Intro/Outro
    ===========
    1)-5-5-5-5-3-3-3-3-3-4-
    2)-5-5-5-5-3-3-3-3-5-6-
    3)-6-6-6-6-4-4-4-4-5-6-
    4)-7-7-7-7-5-5-5-5-5-6-
    5)---------------------
    6)---------------------
    
    Chorus
    ===========
    1)---------------------
    2)---------------------
    3)-----------------5-6-
    4)-7-7-7-7-5-5-5-5-5-6-
    5)-7-7-7-7-5-5-5-5-3-4-
    6)-5-5-5-5-3-3-3-3-----
    
    Riff…
  • Intro and chorus (guitar one):
    
    E|---------------------------------
    B|---------------------------------
    G|-4---------------4---------------
    D|-4---6---2---2---4---6---7---0---
    A|-2---6---2---2---2---6---7---0---
    E|-----4---0---0-------4---5---2---
    
    Intro…
  • Standard Tuning
    
    Riff 1
    ==========
    1)---------------------
    2)---8---10---8--------
    3)-9---9----9---7-8-9--
    4)---------------------
    5)---------------------
    6)---------------------
    
    Chorus
    ========
    1)---------------------
    2)-------9-9-9-9-9-----
    3)-7-7-7-9-9-9-9-9-6-6-6-6-7-7-7-7
    4)-9-9-9-9-9-9-9-9-7-7-7-7-9-9-9-9-
    5)-9-9-9-7-7-7-7-7-7-7-7-7-9-9-9-9-
    6)-7-7-7-----------5-5-5-5-7-7-7-7-
    
    Solo…
  • Standard Tuning
    
    Riff 1
    ========
    guitar 1:
    
    1)-------------------------
    2)---8---------------------
    3)---9-x-x-9-8-8-8-x-8-8-8-
    4)---9-x-x-8-7-7-7-x-7-7-7-
    5)---7-x-x-7-6-6-6-x-6-6-6-
    6)-0---x-x-8-7-7-7-x-7-7-7-
    
    guitar…
  • Standard tuning
    
    Riff 1
    ========
    1)----------------------------------15-16-15-
    2)-------15-15-17-17-15-15----15-15----------
    3)-16-16-------------------16----------------
    4)-------------------------------------------
    5)-------------------------------------------
    6)-------------------------------------------
    
    1)-----------------------------------
    2)-------15-15-17-17-15-15-----------
    3)-16-16-------------------14-14-14b-
    4)-----------------------------------
    5)-----------------------------------
    6)-----------------------------------
    
    Riff…
  • Standard tuning
    
    Intro/ Chorus
    ==============
    1)--------------------------
    2)--------------------------
    3)-4-4-4-------9-9-9--------
    4)-4-4-4--2----9-9-9-7--6-7-
    5)-2-2-2--2----7-7-7-7--6-7-
    6)--------0----------5--4-5-
    
    Riff…
  • Intro a
    =========
    (Have one pickup on and the other off. Then toggle between
    pickups while finger-tapping these chords)
    1)-------------
    2)-------------
    3)-------------
    4)-7-7-7-7-8-5-
    5)-7-7-7-7-8-5-
    6)-5-5-5-5-6-3-
    
    Intro…
  • Standard Tuning
    
    Riff 1
    ==========
    (finger tapped...i saw Goldtoof do it in concert)
    1)-------------17----------------17----------------17----
    2)----------------17----------------17----------------17-
    3)-14-14-13-14-------14-14-13-14-------14-14-13-14-------
    4)-------------------------------------------------------
    5)-------------------------------------------------------
    6)-------------------------------------------------------
    
    1)-------14-13-12-
    2)----14-14-13-12-
    3)-14-14-14-13-12-
    4)----------------
    5)----------------
    6)----------------
    
    Riff…
Наверх