Аккорды Zebrahead - Booty

Добавлено: @romashka
Дата добавления: 30 Июня 2021г.
Рейтинг:
0.0
Просмотров: 67
Транспонировать - +
Riff 1
==========
1)-2-2-2-2-7-7-7-7-7-2-2-2-2-5-5-5-5-7-
2)-2-2-2-2-7-7-7-7-7-2-2-2-2-5-5-5-5-7-
3)-3-3-3-3-8-8-8-8-8-3-3-3-3-6-6-6-6-6-
4)-4-4-4-4-9-9-9-9-9-4-4-4-4-7-7-7-7-7-
5)-4-4-4-4-9-9-9-9-9-4-4-4-4-7-7-7-7-7-
6)-2-2-2-2-7-7-7-7-7-2-2-2-2-5-5-5-5-5-

Riff 2
==========
1)-15-15-15-15-14-12-11-11p12-11-11p12-11p12-
2)-14-14-14-14-14-12-11-11p12-11-11p12-11p12-
3)-------------------------------------------
4)-------------------------------------------
5)-------------------------------------------
6)-------------------------------------------
Наверх