Аккорды Zebrahead - Song 10

Добавлено: @romashka
Дата добавления: 30 Июня 2021г.
Рейтинг:
0.0
Просмотров: 59
Транспонировать - +
Standard Tuning

Riff 1
=======
1)---------------
2)--------6--6-4-
3)-5-5-5b--------
4)---------------
5)---------------
6)---------------

Riff 2
========
1)----------
2)----------
3)----------
4)-3----3---
5)-3----3---
6)-1----1---
Наверх