Аккорды Прикольные песни - Семь сорок (Еврейский народный танец)

Добавлено: @Jlblcblu
Дата добавления: 02 Мая 2013г.
Рейтинг:
0.0
Просмотров: 771
Транспонировать - +
1-ю часть играть два раза, 2-ю -- один раз.

1-я часть:
E|--------------------------------------|
2|-0---0---0---0-3--0-3-0-3-0-3-7-3-7-5-|
G|----0---0---0-------------------------|
D|--------------------------------------|
A|--------------------------------------|
E|--------------------------------------|

E|----------------|
B|-2-5-3--0-3-2-7-|
G|----------------|
D|----------------|
A|----------------|
E|----------------|

2-я часть:

E|----------------|
B|-7-8-10-8-7-5-3-|
G|----------------|
D|----------------|
A|----------------|
E|----------------|
(повторить 2 раза)

E|----------------------------|
B|-7-8-10-12-10-8-7-5-8-7-5-5-|
G|----------------------------|
D|----------------------------|
A|----------------------------|
E|----------------------------|

E|--------------------------|
B|-5-7-8-10-8-7-5-3-6-5-3-3-|
G|--------------------------|
D|--------------------------|
A|--------------------------|
E|--------------------------|

E|---------------------|
B|-7-7-5-5-3-3-1-1-0-0-|
G|---------------------|
D|---------------------|
A|---------------------|
E|---------------------|
comments powered by Disqus
Наверх