Аккорды «30 Seconds to Mars»

30 Seconds to Mars
30 Seconds to Mars — американская поп-группа из города Лос-Анджелес, штат Калифорния. Основана в 1998 году братьями Джаредом и Шенноном Лето (англ. Jared Leto и Shannon Leto). 30 Seconds to Mars выпустили 5 номерных альбомов, сопровождавшиеся грандиозными мировыми турне, и 3 мини-альбома. Название группы было взято участниками из статьи бывшего гарвардского профессора, где шла речь о технологическом прогрессе, в результате которого человечество в буквальном смысле слова окажется вскоре «в тридцати… Читать полностью... 30 Seconds to Mars — американская поп-группа из города Лос-Анджелес, штат Калифорния. Основана в 1998 году братьями Джаредом и Шенноном Лето (англ. Jared Leto и Shannon Leto). 30 Seconds to Mars выпустили 5 номерных альбомов, сопровождавшиеся грандиозными мировыми турне, и 3 мини-альбома. Название группы было взято участниками из статьи бывшего гарвардского профессора, где шла речь о технологическом прогрессе, в результате которого человечество в буквальном смысле слова окажется вскоре «в тридцати секундах от Марса». Интересно отметить, что даже со скоростью света минимальное расстояние от Земли до Марса (во время противостояния) нельзя преодолеть быстрее, чем за 3 минуты. В интервью журналу Kerrang! Джаред Лето назвал основные группы, оказавшие влияние на его творчество, — Pink Floyd, Led Zeppelin, Nine Inch Nails, The Cure, Depeche Mode и Joy Division, Nirvana. Известно также его высказывание: «30 Seconds to Mars — это грандиозность Pink Floyd в энергии Sex Pistols». 30 Seconds to Mars не пользуются услугами секьюрити и установили близкий и прочный контакт со своими фанами. В этом смысле Лето считает себя и группу последователями Minor Threat, которые «…первыми попытались стереть грань между рок-исполнителем и аудиторией». Состав На данный момент Jared Leto — вокал, ритм-гитара, соло-гитара, клавишные. Shannon Leto — ударные, перкуссия, в рамках тура Into The Wild исполняет композицию «L490» на акустической гитаре. Концертные участники Stephen Aiello — бас-гитара (2013 — настоящее время) Бывшие участники Matt Wachter — бас-гитара, клавишные, бэк-вокал (2001—2007) Solon Bixler — гитара, бэк-вокал (2001—2003) Tomo Miličević — соло-гитара, скрипка, клавишные, бэк-вокал, перкуссия Дискография Студийные альбомы 2002 30 Seconds to Mars (лейбл - Immortal) 2005 A Beautiful Lie (лейбл - Virgin Records) 2009 This Is War (лейбл - Virgin Records, EMI) 2013 Love Lust Faith + Dreams (лейбл - EMI) EP 2007 AOL Sessions Undercover (лейбл - Virgin) 2008 To the Edge of the Earth (лейбл - Virgin) 2011 MTV Unplugged: 30 Seconds to Mars (лейбл - Virgin) Синглы 2002 Capricorn (A Brand New Name) (с альбома 30 Seconds to Mars) 2003 Edge of the Earth (с альбома 30 Seconds to Mars) 2005 Attack (с альбома A Beautiful Lie) 2006 The Kill (Bury Me) (с альбома A Beautiful Lie) 2006 From Yesterday (с альбома A Beautiful Lie) 2007 A Beautiful Lie (с альбома A Beautiful Lie) 2009 Kings and Queens (с альбома This Is War) 2010 This Is War (с альбома This Is War) 2010 Closer to the Edge (с альбома This Is War) 2011 Hurricane 2.0 (с альбома This Is War) 2013 Up in the Air (с альбома Love Lust Faith + Dreams) Саундтрэки 2003 | Земное ядро | Echelon с альбома 30 Seconds to Mars 2005 | Madden NFL 06 | Attack с альбома A Beautiful Lie 2006 | Madden NFL 07 | Battle of One с альбома 30 Seconds to Mars 2007 | Without a Trace | The Kill с альбома A Beautiful Lie 2007 | Невидимый | The Kill с альбома A Beautiful Lie 2008 | Guitar Hero World Tour | The Kill с альбома A Beautiful Lie 2009 | Двойной час | A Beautiful Lie с альбома A Beautiful Lie 2009 | Dragon Age: Origins | This Is War с альбома This Is War 2010 | Скайлайн | Kings and Queens с альбома This Is War 2010 | Легенды ночных стражей | Kings and Queens с альбома This Is War 2010 | Need for Speed: Hot Pursuit 2010 | Edge of the Earth с альбома A Beautiful Lie 2011 | Я — четвёртый | Escape с альбома This Is War 2011 | Камелот | This Is War с альбома This Is War 20011 | Shift 2: Unleashed | Night of the Hunter с альбома This Is War 2011 | Хранитель Времени | Kings and Queens с альбома This Is War 2012 | Толстяк на ринге | Vox Populi с альбома This Is War Скрыть...
Популярные аккорды 30 Seconds to Mars:
алфавиту | просмотрам | случайно
  • Rhythm Guitar
    
         |-3|    |--3-|  |-3|    |--3-|     |-3|    |--3-|  |-3|    |--3-|   
         E  Q    Q    E  E  Q    Q    E     E  Q    Q    E  E  Q    Q    E   
    E||----------------------------------|----------------------------------|
    B||----------0---------------0-------|----------0---------------0-------|
    G||---------------0---------------0--|---------------0---------------0--|
    D||--5--5------------5--5------------|--5--5------------5--5------------|
    A||--3--3------------3--3------------|--3--3------------3--3------------|
    E||----------------------------------|----------------------------------|…
  • This is actually how I play the verses but you can use power chords and it
     sounds fine as well. It is also the intro riff that is played twice before
     the first verse.
    e|----------------------------------------|
    B|----------------------------------------|
    G|----------------------------------------|
    D|----88888--------------66666------------|
    A|-666---------44444--444--------66666----|
    E|----------222---------------444---------|
    
    Verse…
  • tuning Eb-Ab-C#-F#-Bb-Eb
    enjoy
    
    
    please note this intro was done on keyboard just imitated for guitar
    eb--------------------|----------------9--|
    Bb--------9--10-9-7---|--9---7-9---7------|
    Gb--------------------|-------------------|
    Db----7-7---7-------7-|----7-----7---7----|
    Ab--------------------|-------------------|
    Eb--------------------|-------------------|
    
    eb--------------------|----------------9--|
    Bb--------9--10-9-7---|--9---7-9---7------|
    Gb--------------------|-------------------|
    Db----6-6---6-------6-|----6-----6---6----|
    Ab--------------------|-------------------|
    Eb--------------------|-------------------|
    
    
    eb--------------------|----------------9----…
  • Bb-                     Ab                    F#     Ab 
    No matter how many times that you told me you wanted to leave
              Bb-                       Ab                       F#       Ab
    No matter how many breaths…
  • Intro/verse
    
    guitar1
    Eb:-------------------------------|
    Bb:-------------------------------|
    Gb:-------------------------------|
    Db:-------------------------------|
    Ab:---9-8---9-8---9-8---9-8---9-8-|
    Eb:-9-----9-----9-----9-----9-----|
    
    guitar2
    Eb:--------------------|
    Bb:--------------------|
    Gb:--9-----------------|
    Db:--9--6--------------|
    Ab:--7--6--------------|
    Eb:-----4--------------|
    
    Chorus
    Eb:-----------------------|
    Bb:-----------------------|
    Gb:-------------9---------|
    Db:-9---4---6---9---------|
    Ab:-9---4---6---7---------|
    Eb:-7---2---4-------------|
    
    Eb:------------------------|
    Bb:------------------------|
    Gb:------------------------|
    Db:-9---4---9---9---9------|
    Ab:-9---4---9---9---9------|
    Eb:-7---2---7---7---7------|
    
    Bridge…
  • Tuning (From low to high) CGCFAD
    
    Intro - guitar 2 (w/ flanger and delay)
    |------10----10----10----10----10----10----10----10-------------|
    |------11----10----10----10----11----10----10----10-------------|
    |------12----10----10----10----12----10----10----10-------------|
    |------------10----8-----10----------10----8-----10-------------|
    |---------------------------------------------------------------|
    |---------------------------------------------------------------|…
  • Am  
    Lie awake in bed at night
                          F
    And think about your life
    
    Do you want to be different, different?
    Dm
    Try to let go of the truth
                          E
    The balance of your youth
    
    Cause…
  • Intro - guitar 1
    *Listen to album for strumming pattern
    |-----------------|---------------------------------------------|
    |-----------------|---------------------------------------------|
    |-----------------|---------------------------------------------|
    |----7-5-7-6-4----|-7-5-7-6-4-11\----7-5-7-6-4/11---------------|
    |----7-5-5-4-2----|-7-5-5-4-2--9\----7-5-5-4-2/9----------------|
    |----7-5----------|-7-5--------------7-5------------------------|
    Play…
  • Intro: Dm-Bb-Gm-Dm-Bb-C
         Dm          Bb
    Did we create a modern myth
         Gm
    Did we imagine half of it
           Dm             Bb
    Would happen in a thought from now
    
     C
    Save yourself
    Save yourself
    
        Bb…
  • Tuning:CGCFAD (Tune down 1 1/2 steps)
    
    Intro
    e|-------------------------------------------------------------------------|
    B|-------------------------------------------------------------------------|
    G|-------------------------------------------------------------------------|
    D|-11-11-11-11-11-11-11--9--9--9--9-11-12-11--6--6--7--7--7--9--9--9--7--7-|
    A|-------------------------------------------------------------------------|
    E|-------------------------------------------------------------------------|
    
    e|-------------------------------------------------------------------------|
    B|-------------------------------------------------------------------------|
    G|-------------------------------------------------------------------------|
    D|-7--6--11-11-11-11-11-11-11--9--9--9--9-11-12-11-6--6--7--7--7--9--------|
    A|-------------------------------------------------------------------------|
    E|-------------------------------------------------------------------------|
    
    Verse…
  • Intro - Guitar 1
    Listen to album for strumming pattern
    |---------------------------------------------------------------|
    |---------------------------------------------------------------|
    |---------------------------------------------------------------|
    |----5-6----8-10----5-6----3-8-1--------------------------------|
    |----5-6----8-10----5-6----3-8-1--------------------------------|
    |----5-6----8-10----5-6----3-8-1--------------------------------|…
  • Verse(in arpeggio)
    D:----------------------|
    A:----------------------|
    F:----------------------|
    C:-0--0--0--0-0---------|
    G:-9--7--5--5-4---------|
    D:-7--5--3--3-2---------|
    
    Chorus
    D:----------------------|
    A:----------------------|
    F:----------------------|
    C:-0--0--0--0-0---------|
    G:-9--7--5--5-4---------|
    D:-7--5--3--3-2---------|
    
    Eb:--------------------------|
    Bb:--------------------------|
    Gb:--------------------------|
    Db:--5--7--9--11-------------|
    Ab:--5--7--9--11-------------|
    Eb:--3--5--7--9--------------|…
  • [Intro/Verse] Guitar 1 [Tomo]  x4
    e|-----------------|-----------------|-----------------|-----------------|
    b|-----------------|-----------------|-----------------|-----------------|
    g|-----------------|-----------------|-----------------|-----------------|
    d|-----2---3---2---|-----5------5----|-----2---3---2---|-----5------7----|
    a|-0-0---0---0---0-|-3-3----3-3------|-0-0---0---0---0-|-3-3----5-5------|
    D|-----------------|-----------------|-----------------|-----------------|…
  • G
    I don't remember one moment I tried to forget
       D
    I lost myself yet I'm better not sad
            Em     D      C
    Now I'm closer to the edge
    
               G
    It was a a thousand to one and a million to two…
  • Intro/Bridge distortion
    eb|---------------------------------------------------------------------------|
    Bb|---------------------------------------------------------------------------|
    Gb|---------------------------------------------7-----------------------------|
    Db|-0--0--0-6-xxxxx--0-0-6-xx--0-0-6-xxxxx-0-0-0------------------------------|
    Ab|-0--0--0-6-xxxxx--0-0-6-xx--0-0-6-xxxxx-0-0-0------------------------------|
    Db|-0--0--0-6-xxxxx--0-0-6-xx--0-0-6-xxxxx-0-0-0------------------------------|
    
    
    eb|---------------------------------------------------------------------------|
    Bb|---------------------------------------------------------------------------|
    Gb|---------------------------------------------------------------------------|
    Db|-0--0--0-6-xxxxx--0-0-6-xx--0-0-6-xxxxxxxxxxxxx----------------------------|
    Ab|-0--0--0-6-xxxxx--0-0-6-xx--0-0-6-xxxxxxxxxxxxx----------------------------|
    Db|-0--0--0-6-xxxxx--0-0-6-xx--0-0-6-xxxxxxxxxxxxx----------------------------|…
  • Am
    I've been up in the air
                    Em
    Out of my head 
                    Dm                  Am              
    Stuck in a moment of emotion I've destroyed. 
      Em        Dm
    Is this the end I feel.…
  • Intro
    Eb:-----------------------------------------|
    Bb:-----------------------------------------|
    Gb:-----------------------------------------|
    Db:--------5-------7------------------------|
    Ab:----3-3---3-5-5---------7-----5---5------|
    Eb:------------------4-5-5---5-5---5--------|
    
    Eb:-----------------------------------------|
    Bb:-----------------------------------------|
    Gb:-----------------------------------------|
    Db:--------5-------7------------------------|
    Ab:----3-3---3-5-5---------7-----5-7-5------|
    Eb:------------------4-5-5---5-5------------|
    
    Repeat…
  • Tuning (from low to high) CGCFAD
    
    Intro - guitars 1 and 2
    |----------------|-----------------------------------------------|
    |----------------|-----------------------------------------------|
    |----------------|-------9--10--12-------------------------------|
    |-0-8-5-10-8-7---|-0-8-5-x--x---x--------------------------------|
    |-0-8-5-10-8-7---|-0-8-5-7--8---10-------------------------------|
    |-0-8-5-10-8-7---|-0-8-5-----------------------------------------|
    Play…
  • Drop D + Half a step flat (Db Ab Db Gb Bb eb)
    
    
    Verse
    
    Guitar 1
    eb|-----------------------------------------------------------|
    Bb|-----------------------------------------------------------|
    Gb|--4-4-4-4-4-4-4-4/7-7-7-7-7-7-7-7/11-11-11-11-11-11-11-11--|…
  • Intro
    (figure out the timing)
    Eb:---12---12--12----12--12---12--12--11--11---11----11---11------------------|
    Bb:---------------------------------------------------------------------------|
    Gb:---------------------------------------------------------------------------|
    Db:---------------------------------------------------------------------------|
    Ab:---------------------------------------------------------------------------|
    Eb:---------------------------------------------------------------------------|
    
    
    Verse
    Eb:----------------------------------------|
    Bb:----------------------------------------|
    Gb:------9---6---4----------9---6---6------|
    Db:--6---9---6---4------6---9---6---6------|
    Ab:--6---7---4---2------6---7---4---4------|
    Eb:--4------------------4------------------|
    
    Chorus
    Eb:--------------------------|
    Bb:--------------------------|
    Gb:--------------------------|
    Db:--2---4---6---9-----------|
    Ab:--2---4---6---9-----------|
    Eb:--0---2---4---7-----------|
    
    Bridge
    Eb:----------------------------------------|
    Bb:----------------------------------------|
    Gb:-------8--6-------6--4------4--3~-------|
    Db:----------------------------------------|
    Ab:---6---------------------4--------------|
    Eb:-4------------0~------------------------|
    
    Eb:------------------------------------|
    Bb:------------------------------------|
    Gb:-------8--6-------6--4--------------|
    Db:------------------------------------|
    Ab:---6---------------------4~---------|
    Eb:-4------------0~--------------------|…
  • Intro
    |    A    | x2
    
    |    D    |
    
    Verse 1
          D
    I was born of the womb of a poisonous spell
          D
    Beaten and broken and chased from the lair
          D
    But I rise up above it, high up above it and see…
  • Intro: Cm G G# A# 2x
    
    Cm
    I’m tired of the waiting,
    G
    For the end off all days.
    G#
    The prophets are preaching,
    A#
    That the Gods are needing praise.
    Cm
    The headlights are coming,
    G
    Showing me the way.
    G#
    The…
  • Guitar 1
    Intro
    D|------------------------------------------|
    A|------------------------------------------|
    F|------------------------------------------|
    C|------------------------------------------|
    G|-----------------------------11-11-11-11--|
    C|--10-10-10-10-10-10-10-10----10-10-10-10--|
    
    Guitar…
  • Eb
    Into the night
      C#            Ab
    Desperate and broken
                    Eb
    The sound of a fight
      C#        Ab
    Father has spoken
                 Eb        Bb         Ab
    We were the kings and queens of promise…
  • Tuning: standard
            
             Intro:
    e|-------------------------------------------------------------------------|
    B|-------------------------------------------------------------------------|
    G|----------------------------------------------17-------------------------|
    D|-------17----18-17-15----18----15-17----15-------------------------------|
    A|-------------------------------------------------------------------------|
    E|-16-16----16----------16----16-------16----16----16----------------------|
    
    e|-------------------------------------------------------------------------|
    B|-------------------------------------------------------------------------|
    G|----------------------------------------------17-------------------------|
    D|-------17----18-17-15----18----15-17----15-------------------------------|
    A|-------------------------------------------------------------------------|
    E|-15-15----15----------15----15-------15----15----15----------------------|
    
    e|-------------------------------------------------------------------------|
    B|-------------------------------------------------------------------------|
    G|-------------------------------------------------------------------------|
    D|-------17----18-17-15----18----15-17----15----17-------------------------|
    A|-------------------------------------------------------------------------|
    E|-13-13----13----------13----13-------13----13----13----------------------|…
  • Intro - guitars 1 and 2
    Listen to Album for strumming pattern
    |---------------------------------------------------------------|
    |---------------------------------------------------------------|
    |---------------------------------------------------------------|
    |--xx-8-6-8-10--10-12-0~---8~---0~---5/-------------------------|
    |--xx-8-6-6-8---10-10-0~---8~---0~---5/-------------------------|
    |--xx-8-6-------10----0~---8~---0~---5/-------------------------|…
  • Em
    Grab your gun
                  G 
    Time to go to hell 
           C   
    I'm no hero 
              Am
    Guilty as charged 
    Em
    Search and destroy 
     
             Em
    Found my faith 
              G
    Living in sin 
           Am
    I'm…
  • Capo on 2
    
    E               B
    I believe in nothing
            C#                E
    Not the end and not the start
    E             B
    I believe in nothing
            C#                   F#m        Abm
    Not the earth and not…
  • Capo In 1st Fret..
    
    Tuning.. E A D G B e
    
        E           Asus4          C#          B
    //--0--//   //--0--//   //--0--//   //--0--//
    //--0--//   //--0--//   //--0--//   //--0--//
    //--1--//   //--2--//   //--6--//…
  • Intro
    Gb|--------------|X2|----------------------|
    Db|--------------|X2|----------------------|
    Ab|----3--5--1-0-|X2|----3----1-0-----3----|
    Db|-3------------|X2|-3-----0------3-----0-|
    
    Verse x3
    Gb|-------------------|
    Db|-------------------|
    Ab|-------------------|
    Db|-xxxx-77-xxxxxx7^7-|
    
    Prechorus…
  • Guitar 1: Introduction
    
    e|-----------------------------------------------------------------|
    B|-----------------------------------------------------------------|
    G|-4---4-5---2---2-4---4-5---5---5-4---4-5---2---2-4---4-5---5---5-|
    D|---2-----2---2-----2-----2---2-----2-----2---2-----2-----2---2---|
    A|-----------------------------------------------------------------|
    E|-----------------------------------------------------------------|
    
    Guitar…
  • Intro: D
    
    Refrain
               D                
    This is a call to arms, gather soldier
    D                 
    Time to go to war
               D              
    This is a battle song, brothers and sisters
    A
    Time to go to…
  • Guitar 1
    ----------------------------------------|
    ----------------------------------------|
    -4---4-5---2---2-4---4-5---5---5--------|
    ---2-----2---2-----2-----2---2----------|
    ----------------------------------------|
    ----------------------------------------|
    
    Guitar…
  • Intro/Verses
    
    D|-------------------------------------------------------------------------|
    A|-------------------------------------------------------------------------|
    F|-------------------------------------------------------------------------|
    C|------0-0-0-0-------0-0-0-0---------0-0-0-0------------------------------|
    G|---3--------------3---------------3--------------------------------------|
    C|-0--------------0---------------0----------------------------------------|
    
    (Repeat…
  • -Intro (clean with chorus and swell)         add dist.
    eb :---------------------------------------------------|
    Bb :---3------------------3------------------------3---|
    Gb :---2---9---5---7------2---9---5---7------------2---|
    Db…
  • F
    Enemy of mine, I'll fuck you like the devil.
              Em
    Violent inside, beautiful and evil.
    F
    I'm a ghost. You're an angel.
                        Em
    We're one and the same, just remains of an age.…
  • Tuning: DADGBE
    
    Intro (Lead)
    |--------------------------------------------|
    |--------------------------------------------|
    |--12-------14-----15-----10-------7---------|
    |---X-X16----X-X8---X-X8---X-X16---X-X16-----|
    |--10-------12-----13------8-------5---------|
    |--------------------------------------------|
    
    Intro…
  • Verse 1:
    Gm          D
    Hey man, where'd you go today?
            Eb
    Did you find some place to stay?
     F
    Far, far, far away, yeah
    Gm          D
    Hey man, there you go again
    Eb
    On your own again
             F
    You're breaking…
  • Intro: Bm A G | G A Bm
    
    Verse 1:
        Bm       A              G          G A Bm
    Whatever you do, don't ever play my canyon
    Bm       A               G         G A Bm
    Too many years being the king of pain
              Bm…
  • Intro: Cm Cm Gm Ab B
    
    Verse:
    Cm
     Another life, another love
                               Gm
     Another kill, another drug
    Ab
     Another touch, another taste
    B
     Oh, oh, oh
    Cm
     Another night, another war…
  • Verse 1:
    F
    All of the sudden it was midnight
    F
    Wild and haunting
    A#
    And we were running 'til the sunrise
    A#
    All we wanted
    Dm
    The last night we'll ever Do this
    Dm
    The last night, time to go
    A#
    You and me
    
    Chorus:…
  • Intro: [A$AP Rocky]
    
    Em          G
    Love is like problems
           C
    We all got 'em
    
    Verse 1: [Thirty Seconds to Mars]
    Em              G
    А dark night, remember
    C
    The sunrise, surrender
    Em                    G
    There…
  • Verse 1:
                C               Am
    Is this the life that we're living?
            G                     F
    Say the prayers in a thousand tongues
            C                Am
    Is this love? Some new beginning?…
  • Вступление: Am G Dm F
    
                  Am 
    There is a rider on the storm
        G
    А silence when I Go away
        Dm
    А violence when I told you
                  F
    Lord, you'll miss me, you will miss me
                Am G Dm…
  • Intro: C Am G F
    
    Verse 1:
              C           Am
    I've been dreaming of things yet to come  
    G
    Living, learning, watching, burning 
    F
    Eyes on the sun 
    
        C        Am
    I'm leaving, gone yesterday 
    G…
Наверх