Аккорды AC/DC - Bad Boy Boogie

Добавлено: @romashka
Дата добавления: 16 Марта 2013г.
Рейтинг:
0.0
Просмотров: 466
Intro:
E|----------------------|-----------------------|------------------------|
B|----------------------|-------3---------------|--3---------------------|
G|----------2--2--2--2--|----2--2----5--2----2--|--2----5--2----2--2--2--|
D|----------2--2--2--2--|----2--0----5--2----2--|--0----5--2----2--2--2--|
A|----------0--0--0--0--|----0-------0--0----0--|-------0--0----0--0--0--|
E|----------------------|-----------------------|------------------------|

|-----------------------|------------------------|-----------------------|
|-------3---------------|--3---------------------|-------3---------------|
|----2--2----5--2----2--|--2----5--2----2--2--2--|----2--2----5--2----2--|
|----2--0----5--2----2--|--0----5--2----2--2--2--|----2--0----5--2----2--|
|----0-------0--0----0--|-------0--0----0--0--0--|----0-------0--0----0--|
|-----------------------|------------------------|-----------------------|

On the day...
|------------------------|-----------------------|------------------------|
|--3---------------------|-------3---------------|--3---------------------|
|--2----5--2----2--2--2--|----2--2----5--2----2--|--2----5--2----2--2--2--|
|--0----5--2----2--2--2--|----2--0----5--2----2--|--0----5--2----2--2--2--|
|-------0--0----0--0--0--|----0-------0--0----0--|-------0--0----0--0--0--|
|------------------------|-----------------------|------------------------|

|-----------------------|-----------------------|------------------------|
|-----------------------|-----------------------|--------3---------------|
|----2----2--2----2--2--|----2----2--2----2--2--|--------2----5--2----2--|
|----2----2--2----2--2--|----2----2--2----2--2--|--2--2--2----5--2----2--|
|----0----0--0----0--0--|----0----0--0----0--0--|--0--0-------0--0----0--|
|-----------------------|-----------------------|------------------------|

|-----------------------|-----------------------|-----------------------|
|--3--------------------|-----------------------|-----------------------|
|--2----5--2------2--2--|----2----2--2----2--2--|----2----2--2----2--2--|
|--2----5--2------2--2--|----2----2--2----2--2--|----2----2--2----2--2--|
|-------0--0------0--0--|----0----0--0----0--0--|----0----0--0----0--0--|
|-----------------------|-----------------------|-----------------------|
it was...
|------------------------|----------------------|-----------------------|
|--------3---------------|--3-------------------|-----------------------|
|--------2----5--2----2--|--2----5--2--------7--|----7----7--7----7--7--|
|--2--2--2----5--2----2--|--2----5--2--------7--|----7----7--7----7--7--|
|--0--0-------0--0----0--|-------0--0--------5--|----5----5--5----5--5--|
|------------------------|----------------------|-----------------------|

|-----------------------|------------------------|------------------------|
|-----------------------|------------------------|------------------------|
|----7----7--7----7--7--|------12----10--7-------|--12----10--7-----------|
|----7----7--7----7--7--|------12----10--7----0--|--12----10--7--------2--|
|----5----5--5----5--5--|------10----8---5-------|--10----8---5--------2--|
|-----------------------|------------------------|---------------------0--|
scared the hell...
|-----------------------|-----------------------|-----------------------|
|-----------------------|-----------------------|-----------------------|
|----1----1--1----1--1--|----1----1--1----1--1--|-------2---------------|
|----2----2--2----2--2--|----2----2--2----2--2--|-------2-------2-------|
|----2----2--2----2--2--|----2----2--2----2--2--|-------0-------2-------|
|----0----0--0----0--0--|----0----0--0----0--0--|--0---------3--0----0--|
they said stop...
|----------------------|----------------------|----------------------|
|----------------------|----------------------|----------------------|
|--2----------------5--|------2-------2----2--|-------2----2------5--|
|--2-------2--------5--|------2-------2----2--|-------2----2------5--|
|--0-------2--------3--|------0-------0----0--|-------0----0------3--|
|-------3--0-----------|-----------3----------|----3-----------------|

|----------------------|----------------------|----------------------|
|----------------------|----------------------|----------------------|
|------2-------2----2--|-------2----2------5--|------2-------2----2--|
|------2-------2----2--|-------2----2------5--|------2-------2----2--|
|------0-------0----0--|-------0----0------3--|------0-------0----0--|
|-----------3----------|----3-----------------|-----------3----------|
bad boy boogie
|----------------------|----------------------|-------------------------|
|----------------------|----------------------|-------------------------|
|-------2----2------5--|------2-------2-------|-------------------------|
|-------2----2------5--|------2-------2----7--|----6--5-----------------|
|-------0----0------3--|------0-------0-------|----------7--3--5--3--5--|
|----3-----------------|-----------3----------|-------------------------|
Но если и музыка нас оставит, что будет тогда с нашим миром? (Гоголь)
Мы стремимся к созданию контента, соответствующего всем нормам законодательства и уважающего интеллектуальную собственность. Мы также придаем большое значение тому, чтобы не задеть никого и не оскорбить чьи-либо чувства. Если у вас есть вопросы или претензии по размещенному материалу, пожалуйста, сообщите нам об этом на указанный адрес электронной почты: [email protected].
Шрифт
-
0
+
Прокрутка
-
0
+
Стоп
Наверх