Аккорды AC/DC - Flick of the Switch

Добавлено: @romashka
Дата добавления: 16 Марта 2013г.
Рейтинг:
0.0
Просмотров: 458
--------------------------------------------------------------------------|
------------------8------8-----------8b10--8b10--8b10--8b10---------------|
------------------7b9--5-7-5-5-7------------------------------------------|
---7--7--5-----------------------7----------------------------------------|
-------------5⁄-----------------------------------------------------------|
--------------------------------------------------------------------------|

-5------------------------------------------------------------------------|
---5-8---5----------------------------------------------------------------|
-------7---5-7------5-5--5p2p0-5p2p0-5p2p0-5p2p0-4b5----------------------|
---------------7----------------------------------------------------------|
--------------------------------------------------------------------------|
--------------------------------------------------------------------------|

----------------------------------------17-15-----------------------------|
--8b10--8b10--10b12------------17-15b16-------17-15-17-16r15--------------|
-------------------------14h17--------------------------------------------|
---------------------14x--------------------------------------------------|
--------------------------------------------------------------------------|
--------------------------------------------------------------------------|
Oh! Oh! Oh!

--------17⁄--------17----------17----------17-----------------------------|
--------17⁄--20b22----20-20b22----20-20b22----20-20b22--------------------|
-17-14--17⁄---------------------------------------------------------------|
--------------------------------------------------------------------------|
--------------------------------------------------------------------------|
--------------------------------------------------------------------------|

-17----------17---------------20b22r20⁄-----------------------------------|
----17----20--------------------------------------------------------------|
-------19-------19b21r19-17-----------------------------------------------|
--------------------------------------------------------------------------|
--------------------------------------------------------------------------|
-----------------------------------------/17------------------------------|

--------------------------------------------------------------------------|
--------------------------------------------------------------------------|
--------------------------------------------------------------------------|
--------------19-19-19⁄---------------------------------------------------|
--------------19-19-19⁄---------------------------------------------------|
--------------------------------------------------------------------------|
Flick the switch!

--------------17----17----17----17----17----17----17----------------------|
--------------20b22-20b22-20b22-20b22-20b22-20b22-20b22-------------------|
--------------------------------------------------------------------------|
--------------------------------------------------------------------------|
--------------------------------------------------------------------------|
--------------------------------------------------------------------------|
Музыка не только фактор облагораживающий, воспитательный. Музыка – целитель здоровья (Бехтерев)
Мы стремимся к созданию контента, соответствующего всем нормам законодательства и уважающего интеллектуальную собственность. Мы также придаем большое значение тому, чтобы не задеть никого и не оскорбить чьи-либо чувства. Если у вас есть вопросы или претензии по размещенному материалу, пожалуйста, сообщите нам об этом на указанный адрес электронной почты: [email protected].
Шрифт
-
0
+
Прокрутка
-
0
+
Стоп
Наверх