Аккорды AC/DC - High Voltage

Добавлено: @romashka
Дата добавления: 16 Марта 2013г.
Рейтинг:
0.0
Просмотров: 489
INTRO

E|----------------------------------------------------------------------------|
B|----------------------------------------------------------------------------|
G|-5-5----------------5-5-----------------5-5-------------------5-5-----------|
D|-3-3----------------3-3-----------------3-3-------------------3-3-----------|
A|------7-7----5-5-5-----7-7----7-7-7--------7-7----5-5-5--------7-7----5-5-5-|
E|------5-5----3-3-3-----5-5----5-5-5--------5-5----3-3-3--------5-5----3-3-3-|

VERSE

E|----9-x-9-----9-x-9-----9-x-9-----9-x-9-----9-x-9-----9-x-9---9-x-9-----9-x-9|
B|-7-8------7-8-------7-8-------7-8-------7-8-------7-8------7-8------7-8------|
G|-----------------------------------------------------------------------------|
D|-----------------------------------------------------------------------------|
A|-----------------------------------------------------------------------------|
E|-----------------------------------------------------------------------------|

CHORUS
Heaps of people don’t get this but its there name in the chords Angus says.

A C D C High voltage rock ‘n’ roll
E|--------0--------0-------------2--------------0-|
B|--------0--------1-------------3--------------1-|
G|--------2--------0-------------2--------------0-|
D|--------2--------2-------------0--------------2-|
A|--------2--------3----------------------------3-|
E|-----------------0----------------------------0-|

SOLO
This looks tricky but it isn’t it isn’t played to quick
E|------12---------------------------------------------------|
B|-------------12---------12------------------------12-15—15-|
G—14b-------12-14-14---12-------12-14b-----------------------|
D|-----------------------------14-14-------------------------|
A|-----------------------------------------------------------|
E|-----------------------------------------------------------|

E|-------------------12--------------------------------------------|
B|---------------------15------------------------------------------|
G|--14-14-12----12-14------14b--16h14-12-14b—16h12-----------------|
D|----------14-----------------------------------------------------|
A|-----------------------------------------------------------------|
E|---------------------------------------------------------0-0-0-0-|
Но если и музыка нас оставит, что будет тогда с нашим миром? (Гоголь)
Мы стремимся к созданию контента, соответствующего всем нормам законодательства и уважающего интеллектуальную собственность. Мы также придаем большое значение тому, чтобы не задеть никого и не оскорбить чьи-либо чувства. Если у вас есть вопросы или претензии по размещенному материалу, пожалуйста, сообщите нам об этом на указанный адрес электронной почты: [email protected].
Шрифт
-
0
+
Прокрутка
-
0
+
Стоп
Наверх