Аккорды AC/DC - Rising Power

Добавлено: @romashka
Дата добавления: 16 Марта 2013г.
Рейтинг:
0.0
Просмотров: 401
Riff 1

E -----------------------------
B -----------------------------
G ----4------4-4----2-2-0-4----
D ----4------4-4----2-2-0-4----
A -52-2---52-2-2--0-0-0-0-2----
E -----------------------------

Riff 1A

E ---------------------33-3-00-0-0-
B ---------------------33-3-22-2-2-
G ----4------4----44-4-00-0-22-2-2-
D ----4------4----44-4-00-0-22-2-2-
A -52-2---52-2----22-2-22-2-00-0-0-
E ---------------------33-3--------

Riff 2

E -----------------------------------------
B -----------------------------------------
G -2-2-0-2-----1-1-0-1---------------------
D -2-2-0-2-----2-2-0-2-----2-2-2-2-2-2-2-2-
A -0-0-0-0-----2-2-0-2-----2-2-2-2-2-2-2-2-
E -------------0-0-0-0-----0-0-0-0-0-0-0-0-

Riff 2A

E -----------------------------
B -----------------------------
G -2-2-0-2---------------------
D -2-2-0-2-----2-2-2-2-2-2-2-2-
A -0-0-0-0-----2-2-2-2-2-2-2-2-
E -------------0-0-0-0-0-0-0-0-

Riff 3

E ------2----------0-----------2----------2------
B ------3----------0-----------3----------3------
G -4----2--------2-1------4----2----------2------
D -4----0--------2-2------4----0----------0------
A -2--0-----0----0-2------2--0-----0----0--------
E ------------3==--0-----------------3==---------

Riff 3A

E ------2------------33-3------
B ------3------------33-3------
G -4--2-2---2---44-4-00-0-2-2--
D -4--2-0---2---44-4-00-0-2-2--
A -2--0-----0---22-2-22-2-0-0--
E -------------------33-3------

Riff 3B

E ------2----- --------3-3-3--0--0-- ---
B ------3----- --------3-3-3--2--2-- ---
G -4--2-2---2- -4-4-4--0-0-0--2--2-- -4-
D -4--2-0---2- -4-4-4--0-0-0--2--2-- -4-
A -2--0-----0- -2-2-2--2-2-2--0--0-- -2-
E ------------ --------3-3-3-------- ---

Order

Riff 1 x 8
Riff 2 x 1
Riff 3 x 2
Riff 1 x 4
Riff 2 x 1
Riff 3 x 2
Solo over Riff 1 x 3
Solo over Riff 1A x 1
Solo over Riff 3A x 4
Riff 2A x 1
Riff 3 x 2
Riff 3A x 3
Riff 3B x 1
Но если и музыка нас оставит, что будет тогда с нашим миром? (Гоголь)
Мы стремимся к созданию контента, соответствующего всем нормам законодательства и уважающего интеллектуальную собственность. Мы также придаем большое значение тому, чтобы не задеть никого и не оскорбить чьи-либо чувства. Если у вас есть вопросы или претензии по размещенному материалу, пожалуйста, сообщите нам об этом на указанный адрес электронной почты: [email protected].
Шрифт
-
0
+
Прокрутка
-
0
+
Стоп
Наверх