Аккорды AC/DC - Touch Too Much

Добавлено: @romashka
Дата добавления: 16 Марта 2013г.
Рейтинг:
0.0
Просмотров: 479
Verse I
G|--------------------------------------------------|
D|--------------------------------------------------|
A|---3--3-3--0--0-0-3-3-3-3-3-3-3-5-5-5-5-5-5-5/----|
E|--------------------------------------------------|

Chorus
G|--------------------------------------------------|
D|--------------------------------------------------|
A|---------------------------------3-2-0-5-5-5-5----| x3
E|---0-0-0-0-0-3-3-3-3-3-5-5-5-5-5------------------|

G|--------------------|
D|--------------------|
A|--------------------|
E|---0-0-0-0-0-3-3----|

Fill I
G|------------------------------------|
D|------------------------------------|
A|---0-0-0-0-0-0-0-0-5-0-0-5-0-0-5----|
E|------------------------------------|

Verse II
G|------------------------------------------------------------|
D|------------------------------------------------------------|
A|---------------------------------------------------5-5-0----| x2
E|---0-0-0-0-0-0-0-0-3-3-3-3-3-3-3-3-5-5-5-5-5-5-5-5----------|

G|--------------------------------------------------------------|
D|--------------------------------------------------------------|
A|---------------------------------------------------5-5-5-5----|
E|---0-0-0-0-0-0-0-0-3-3-3-3-3-3-3-3-5-5-5-5-5-5-5-5------------|

G|---------------|
D|---------------|
A|---5-5-5-5/----| x2
E|---------------|

Guitar bit
G|------------------------------------------------------------------|
D|------------------------------------------------------------------|
A|-----------------------------------3-3-3-3-3-3-3-3-3-3-3-3-3-3----|
E|---0-0-0-0-0-0-0-0-0-0-0-0-0-0-0-0--------------------------------|

G|-------------------------------------------------------------------|
D|-------------------------------------------------------------------|
A|---3-3-0-0-0-0-0-0-0-0-0-0-0-0-0-0-0-0--3-3-3-3-3-3-3-3-3-3-3-3----|
E|-------------------------------------------------------------------|

G|----------------------------------------------|
D|----------------------------------------------|
A|---3-3-3-3-5-5-5-5-5-5-5-5-5-5-5-5-5-5-5-5----|
E|----------------------------------------------|

Fill II
G|--------------------------|
D|--------------------------|
A|---------------2-3-0------|
E|---0-3-5-5-3-5-------0----|
Но если и музыка нас оставит, что будет тогда с нашим миром? (Гоголь)
Мы стремимся к созданию контента, соответствующего всем нормам законодательства и уважающего интеллектуальную собственность. Мы также придаем большое значение тому, чтобы не задеть никого и не оскорбить чьи-либо чувства. Если у вас есть вопросы или претензии по размещенному материалу, пожалуйста, сообщите нам об этом.
Шрифт
-
0
+
Прокрутка
-
0
+
Стоп
Наверх