Аккорды AC/DC - You Shook Me All Night Long

Добавлено: @romashka
Дата добавления: 16 Марта 2013г.
Рейтинг:
0.0
Просмотров: 467
E tuning(as with every ac/dc song)
guitar intro and 1st verse
G----------------------------------I---------------------------------I
D----------------------------------I---------------------------------I
A----------------------------------I-5-5-5-5-5-5-5-5-5-5-5-5-5-5-5-5-I
E----------------------------------I---------------------------------I

chorus
G-----------------------------------------------I
D-----------------------------------------------I
A-----0-2-3--2--5---5-5-5---0-2-3--2------------I
E--3------------------------------------------3-I

2nd verse (1st,2nd,and 4th times) 3rd time Into chorus
G---------------------I-------------------------I------------------------------I
D---------------5-5-5-I---------------5-5-4-5-4-I------------------------------I
A---3-3---3---5---5-5-I---3-3---3---5-----------I--5-5-5-5-5-5-5-5-5-5-5-5-5-5-I
E-3-----3---3---------I-3-----3---3-------------I------------------------------I
guitar solo

G--------------------------------------------------------------------I
D--------------------------------------------------------------------I
A---0-2-3--2--5--0-2-3-2-----0-2-3--2--5-5-5-5-5-0-2-3-3-3-2-2-2-----I
E-3----------------------------3----------------------------------3--I
Но если и музыка нас оставит, что будет тогда с нашим миром? (Гоголь)
Мы стремимся к созданию контента, соответствующего всем нормам законодательства и уважающего интеллектуальную собственность. Мы также придаем большое значение тому, чтобы не задеть никого и не оскорбить чьи-либо чувства. Если у вас есть вопросы или претензии по размещенному материалу, пожалуйста, сообщите нам об этом на указанный адрес электронной почты: [email protected].
Шрифт
-
0
+
Прокрутка
-
0
+
Стоп
Наверх