Аккорды AC/DC - Ride On

Добавлено: @romashka
Дата добавления: 26 Октября 2019г.
Рейтинг:
0.0
Просмотров: 24
Транспонировать - +
Intro: C F }x4
 
Verse:
C                   F  C  F
It's another lonely evening
F *                Bb F * Bb
In another lonely town
G *                       C *
But I ain't too young to worry
Bb                      F *
And I ain't too old to cry
C                    F C F
When a woman gets me down
 
C                   F C F
Got another empty bottle 
F *               Bb F * Bb
And another empty bed
G *                     C *
Ain't too young to admit it 
Bb                     F *
And I'm not too old to lie
C                    F C F
I'm just another empty head

F *
That's why I'm lonely
F# *
I'm so lonely
A5
But I know what I'm gonna do -

e|----------------------------------------------------------|
B|----------------------------------------------------------|
G|----------------------------------------------------------|
D|--------------------------------5-------------------------|
A|--------3~~--%---------4~~--%---5-------------------------|
E|--1-1-1----------2-2-2----------3-%-%-%-%-%-%-%-%-%-%-%-%-|
I'm gonna 

F    C
Ride on
F    G
Ride on, standing on the edge of the road
F    C
Ride on, thumb in the air
Bb   F
Ride on, one of these days I'm gonna
F    C 
Ride on, change my evil ways
C    G                         F *
Till then I'll just keep dragging on

C                F C F
Broke another promise
F *                Bb F * Bb
And I broke another heart
G *                       C *
But I ain't too young to realize
Bb                     F *
That I ain't too old to try
C                    F C F
Try to get back to the start

C                   F  C  F
And it's another red light nightmare
F *                Bb F * Bb
Another red light street
G *                       C *
And I ain't too old to hurry
Bb                      F *
Cause I ain't too old to die
C                    F C F
But I sure am hard to beat

F *
That's why I'm lonely
F# *
I'm so lonely
A5
But I know what I'm gonna do -

e|----------------------------------------------------------|
B|----------------------------------------------------------|
G|----------------------------------------------------------|
D|--------------------------------5-------------------------|
A|--------3~~--%---------4~~--%---5-------------------------|
E|--1-1-1----------2-2-2----------3-%-%-%-%-%-%-%-%-%-%-%-%-|
I'm gonna 

F    C
Ride on
F    G
Ride on, got myself a one-way ticket
F    C
Ride on
Bb   F
Ride on, going the wrong way
F    C
Ride on, gonna change my evil ways
C    G                         F *
Ride on, one of these days one of these days

F    C
Ride on
F    G
Ride on
F    C
I'm gonna ride on
Bb   F
Ride on, looking for a truck
F    C
Ride on
C    G                         F *
Ride on, keep on riding riding on and on and on

C      x32010
C *    x3555x
F      x33210
F *    133211
Bb     x1333x
G      3x0033
G *    355433
(E)    0xxxxx
comments powered by Disqus
Наверх