Аккорды Адаптация - Сколько их здесь

Добавлено: @Jlblcblu
Дата добавления: 26 Января 2019г.
Рейтинг:
0.0
Просмотров: 58
Транспонировать - +
Соло 1:
R|      x2
T| T    | T  T    T      T    |  T  T    T      T     | T  T     T  T |
e|------[---------------------]-----------------------|---------------|
B|------[---------------------]-----------------------|-7-------------|
G|----7-[-9--7--6-7---------6-]--9--7--6-7--6---7---9-|------9-7-6----|
D|------[----------------7----]-----------------------|---------------|
A|------[-------------9-------]-----------------------|---------------|
E|------[---------------------]-----------------------|---------------|

Соло 2:
T|   | T  T   T    T   | T  T  T     T    | T  T    T     T    | T T    T  T|
e|---|-----------------|------------------|------------10-9----|------------|
B|-8-|-10-8-7-8--8-7---|------------------|-----------------10-|-7-7-10-7---|
G|---|---------------7-|-9--7--6-7-----6--|-9--7--6-7----------|------------|
D|---|-----------------|-------------7----|--------------------|------------|
A|---|-----------------|-----------9------|--------------------|------------|
E|---|-----------------|------------------|--------------------|------------|

T|  T      T     T T |  T    T      T  T | T  T  T  T | T  T  T  T |
e|---------------9---|-------------14----|------------|------------|
B|---------8---------|-------12----------|------------|------------|
G|--9---9------9-----|-12-12----12-------|------------|------------|
D|-------------------|-------------------|------------|------------|
A|-------------------|-------------------|------------|------------|
E|-------------------|-------------------|-B5----A5---|-G5---------|

Bm                        F#
Старые раны усопшие воспоминания,
Bm                             F#
Саундтрек этой осени стук вагонных колес
G                         Bm
Тлеют костры и горячие точки психоделических войн
D                      F#
Мы исчезаем по одиночке пряча в карманах убитую боль

Bm              G                D
За горизонт дороги за горизонт и боги 
D
смотрят нам в след
       F#
И видят мир без конца и края

Bm
Сколько их здесь, кто мне скажет?
G
Сколько их здесь, кто мне скажет?
D
Сколько их здесь, кто мне скажет?
F#
Сколько их здесь?

Bm                        F#
Время убийц ледяные дворцы и казармы
Bm                             F#
Мутные лозунги, бешеный драйв тишины.
G                         Bm
Видят во сне осколки империй православные мистики
D                      F#
Мы тоже могли стать героями фильма 
F#
но пали жертвами гнусной статистики

Bm              G                D
Дождь за окном все время дождь за окном
       F#
И стаи черных ворон тебе садятся на плечи

Bm
Сколько их здесь, кто мне скажет?
G
Сколько их здесь, кто мне скажет?
D
Сколько их здесь, кто мне скажет?
F#
Сколько их здесь?

Соло 1: 
R|      x2
T| T    | T  T    T      T    |  T  T    T      T     | T  T     T  T |
e|------[---------------------]-----------------------|---------------|
B|------[---------------------]-----------------------|-7-------------|
G|----7-[-9--7--6-7---------6-]--9--7--6-7--6---7---9-|------9-7-6----|
D|------[----------------7----]-----------------------|---------------|
A|------[-------------9-------]-----------------------|---------------|
E|------[---------------------]-----------------------|---------------|

Bm                        F#
Город машин механизмов и ржавого смеха..
Bm                             F#
Тени полковников признаки долгой зимы
G                         Bm
Дуют ветра и ползут отовсюду 
Bm
нефтепроводы вены и люди
D                      F#
Знаешь ли ты от чего здесь 
F#
так много мест где легко умирать

Bm              G             D
День ото дня цветут родные края
       F#
И обитателям дна сегодня есть чем гордиться.

Bm
Сколько их здесь, кто мне скажет?
G
Сколько их здесь, кто мне скажет?
D
Сколько их здесь, кто мне скажет?
F#
Сколько их здесь?

Соло 2:
T|   | T  T   T    T   | T  T  T     T    | T  T    T     T    | T T    T  T|
e|---|-----------------|------------------|------------10-9----|------------|
B|-8-|-10-8-7-8--8-7---|------------------|-----------------10-|-7-7-10-7---|
G|---|---------------7-|-9--7--6-7-----6--|-9--7--6-7----------|------------|
D|---|-----------------|-------------7----|--------------------|------------|
A|---|-----------------|-----------9------|--------------------|------------|
E|---|-----------------|------------------|--------------------|------------|

T|  T      T     T T |  T    T      T  T | T  T  T  T | T  T  T  T |
e|---------------9---|-------------14----|------------|------------|
B|---------8---------|-------12----------|------------|------------|
G|--9---9------9-----|-12-12----12-------|------------|------------|
D|-------------------|-------------------|------------|------------|
A|-------------------|-------------------|------------|------------|
E|-------------------|-------------------|-B5----A5---|-G5---------|

Bm                        F#
Старые раны усопшие воспоминания,
Bm                             F#
Саундтрек этой осени стук вагонных колес
G                         Bm
Тлеют костры и горячие точки психоделических войн
D                      F#
Мы исчезаем по одиночке пряча в карманах убитую боль

Bm              G                D
За горизонт дороги за горизонт и боги 
D
смотрят нам в след
       F#
И видят мир без конца и края

Соло 1:
R|      x2
T| T    | T  T    T      T    |  T  T    T      T     | T  T     T  T |
e|------[---------------------]-----------------------|---------------|
B|------[---------------------]-----------------------|-7-------------|
G|----7-[-9--7--6-7---------6-]--9--7--6-7--6---7---9-|------9-7-6----|
D|------[----------------7----]-----------------------|---------------|
A|------[-------------9-------]-----------------------|---------------|
E|------[---------------------]-----------------------|---------------|

Соло 2:
T|   | T  T   T    T   | T  T  T     T    | T  T    T     T    | T T    T  T|
e|---|-----------------|------------------|------------10-9----|------------|
B|-8-|-10-8-7-8--8-7---|------------------|-----------------10-|-7-7-10-7---|
G|---|---------------7-|-9--7--6-7-----6--|-9--7--6-7----------|------------|
D|---|-----------------|-------------7----|--------------------|------------|
A|---|-----------------|-----------9------|--------------------|------------|
E|---|-----------------|------------------|--------------------|------------|

T|  T      T     T T |  T    T      T  T | T  T  T  T | T  T  T  T |
e|---------------9---|-------------14----|------------|------------|
B|---------8---------|-------12----------|------------|------------|
G|--9---9------9-----|-12-12----12-------|------------|------------|
D|-------------------|-------------------|------------|------------|
A|-------------------|-------------------|------------|------------|
E|-------------------|-------------------|-B5----A5---|-G5---------|

Буква T на табулатуре обозначает равные временный промежутки, равные 1/4 ноты.
R - реприза.
comments powered by Disqus
Наверх