Аккорды Aerosmith - Amazing

Добавлено: @romashka
Дата добавления: 16 Марта 2013г.
Рейтинг:
0.0
Просмотров: 896
(Intro)
G:------14-19-16-12------------------------------------------------|
D:------------------13/14------------------------------------------|
A:12-12-------------------12---3-----------------------------------|
E:---------------------------5---1-4-3-2-2-1-----------------------|

G:-----------------------------------------------------------------|
D:-----------------------------------------------------------------|
A:--------------3-3-3-3--------------------------------------------|
E:5-5-5-5-5-5-5---------1-1-1-1-4-4-4-4-3-3-3-3-2-2-2-2-1----------|

(Chorus)
G:-----------------------------------------------------------------|
D:-----------------------------------------------------------------|
A:3-3/7-7-8-8-7-7-----------------3-3/7-7-8-8-7-7------------------|
E:----------------3-3-3-3-3-3-3-3-----------------3-3-3-3/15-15-15-|

G:-----------------------------------------------------------------|
D:-----------------------------------------------------------------|
A:---------------0---3-3/15-15-14-14-------------------------------|
E:13-13-12-12-10---3-----------------------------------------------|

G:-----------------------------------------------------------------|
D:-----------------------------------------------------------------|
A:--------5-5-5-5---------3-3-3-2---------5-5-5-5---------3-3-3-3--|
E:5-5-5-5---------1-1-1-1---------5-5-5-5---------1-1-1-1----------|

G:-----------------------------------------------------------------|
D:-----------------------------------------------------------------|
A:------------2-3-3-3-3-----------------------------2/3-0----------|
E:5-5-5-5-5-5-----------1-1-1-1-4-4-4-4-3-3-3-3-2-2-------2-1------|

G:-------------------------------------------------------------9-10|
D:-----------------------------------------------------------------|
A:3-3/7-7-8-8-7-7---------------5-3-3/7-7-8-8-7-7-----------10-----|
E:----------------3-3-3-3-3-3-3-------------------3-3-3-5-6--------|

(Bridge)
G:-----------------------------------------------------------------|
D:-----------------------------------------------------------------|
A:8-8-7-7-5-0-----3---3-5-5-7-7-8----------------------------------|
E:------------3-3--------------------------------------------------|

(During Solo)
G:-----------------------------------------------------------------|
D:-----------------------------------------------------------------| x2
A:3-3-3-3-5-5-5-5-7-7-7-7-8-8-8-8----------------------------------|
E:--------------------------------3-3-3-3-5-5-5-5-3-3-3-3-1-1-1-1--|


G:-----------------------------------------------------------------|
D:-----------------------------------------------------------------| x2
A:3-3-3-3-5---5-5-7---7-7-8---8-8----------------------------------|
E:----------5-------7-------8-----3-3-3-3-5-5-5-5-3-3-3-3-1-1-1-1--|
Музыка дает душу вселенной, крылья разуму, полет воображению и жизнь всему (Платон)
Мы стремимся к созданию контента, соответствующего всем нормам законодательства и уважающего интеллектуальную собственность. Мы также придаем большое значение тому, чтобы не задеть никого и не оскорбить чьи-либо чувства. Если у вас есть вопросы или претензии по размещенному материалу, пожалуйста, сообщите нам об этом.
Шрифт
-
0
+
Прокрутка
-
0
+
Стоп
Наверх