Аккорды «Aeternus»

Aeternus
«Aeternus» появился на свет в начале 90-х годов в дождливом норвежском городе Берген. С самого начала движущей силой этого проекта был гитарист и вокалист Арес. Концепция его строилась на всем мрачном, как на музыке, так и на текстах, поэтому команду можно было вполне зачислить в разряд тру-дарк-металлеров. В период становления «Aeternus» записали пару демок, и с помощью второй из них, «Walk my path», получили контракт от маленького лейбла «View beyond productions» на выпуск одного MCD. Диск «Dark… Читать полностью... «Aeternus» появился на свет в начале 90-х годов в дождливом норвежском городе Берген. С самого начала движущей силой этого проекта был гитарист и вокалист Арес. Концепция его строилась на всем мрачном, как на музыке, так и на текстах, поэтому команду можно было вполне зачислить в разряд тру-дарк-металлеров. В период становления «Aeternus» записали пару демок, и с помощью второй из них, «Walk my path», получили контракт от маленького лейбла «View beyond productions» на выпуск одного MCD. Диск «Dark sorcery», вышедший в 1995 году был составлен из медленных, жутко мрачных и неимоверно тяжелых композиций. Мини-альбом привлек к себе внимание ряда крупных лейблов, однако музыканты не спешили с ответом и требовали солидного бюджета для записи полнометражника. Наконец в декабре 1996-го им удалось прийти к согласию с «Hammerheart records» и сделка состоялась. В начале следующего года прошли сессии и уже в марте «Beyond the wandering moon» лежал на прилавках. Покончив со студийными делами «Aeternus» отправились в европейское турне в компании с «Hades» и «Helheim». А пока пресса печатала отзывы на «Beyond…» группа еще разок гастрольнула, разогревая «Emperor» и «Limbonic art». Кстати в то время коллектив состоял из Ареса (гитара, вокал), Вролока (ударные) и Морригана (бас, клавишные). В начале 1998-го «Hammerheart records» переиздал «Dark sorcery» с бонус-треком «In the Darkest Circles of Time», а «Aeternus» тем временем опять торчали в студии, где трудились над вторым альбомом. На этот раз музыкантам удалось сделать пластинку более разнообразной, но в то же время более мрачной и более тяжелой. В 1999 году в команде появился еще один участник – гитарист польского происхождения Радек. С ним был записан третий альбом, «Shadows Of Old». На этом диске группа добавила в звучание скорости и сделала крен в сторону дэта, не забыв при этом о своих дарк-блэк-фолковых корнях. Альбом получился очень удачным, и это позволило коллективу основательно покататься по Европе, завербовывая в свой стан большое количество фанов. В начале 2001 года «Aeternus» выпустили сборник редких и концертных треков «Burning the shroud», а немного погодя вышел очередной полноценный альбом «Ascension of terror». В этот период в составе группы произошли изменения: Морригана сменил Вгандр, а за ударные уселся Эрик. «Ascension of terror» стал последним релизом «Aeternus» на «Hammerheart records». После европейского тура 2002 года и появления на фестивале «Inferno» новый контракт был заключен с «Nocturnal art productions». Дебютом группы на этом лейбле стал «A darker monument», альбом, который отразил дальнейшее продвижение «Аетернуса» в сторону дэт-металла. Скрыть...
Популярные аккорды Aeternus:
алфавиту | просмотрам | случайно
  • Standard E tuning
    
    Mind Corruption
    
    Riff A
    |---------------|------|---------------|------|---------------|------|
    |---------------|------|---------------|------|---------------|------|
    |---------------|------|---------------|------|---------------|------|
    |--7-777-7-7-7--|--2x--|--5-555-5-5-5--|--2x--|--3-333-3-3-3--|--2x--|…
  • Riff1            		      Riff 2
    E-|-----------------------------/-------------------------------
    B-|-----------------------------/--------------------5-3-2-3-5-0
    G-|------2-4--5-4-2-4-4-2-------/-------2-4--5-4-2-4------------
    D-|--245-----------------5-4-5-2/--2-4-5------------------------
    A-|2----------------------------/2------------------------------
    E-|-----------------------------/-------------------------------…
  • Vers riff:
    ----------------------------------------------------------------------------
    ----------------------------------------------------------------------------
    ----------------------------------------------------------------------------
    --4--4-4-4-4---4--4-4-4-4------5--5-5-5-5---5--5-5-5-5----------------------
    --2--2-2-2-2---2--2-2-2-2------3--3-3-3-3---3--3-3-3-3----------------------
    ----------------------------------------------------------------------------
    Play…
  • Standard tunnig: E A D G B E
    
    
     Gtr 1
    |--------------------------------------------------|
    |--------------0--------0--------0--------0--------|
    |*-------0--------0--------0--------0--------0-----|
    |*----4-----4--------4--------4--------4--------4--|
    |--2-----------------------------------------------|
    |--------------------------------------------------|
    
    
    |--------------------------------------------------|
    |--------------0--------0--------0--------0--------|
    |--------0--------0--------0--------0--------0-----|
    |-----4-----4--------4--------4--------4--------4--|
    |--2-----------------------------------------------|
    |--------------------------------------------------|
    
    
    |--------------------------------------------------|
    |--------------0--------0--------0--------0--------|
    |--------2--------2--------2--------2--------2-----|
    |-----2-----2--------2--------2--------2--------2--|
    |--0-----------------------------------------------|
    |--------------------------------------------------|
    
    
    |--------------------------------------0-----------|
    |--------------------------0--------0--------------|
    |-----------------0-----0--------0----------------*|
    |--------2-----2-----2--------2-------------------*|
    |-----2-----2--------------------------------------|
    |--0-----------------------------------------------|…
Наверх