Аккорды Agama - Диван

Добавлено: @romashka
Дата добавления: 27 Мая 2021г.
Рейтинг:
0.0
Просмотров: 254
Транспонировать - +
E--7--7--7------------------------|
B------------7--7--7--8--8--------| x4 

E-------------------8--8--8---|
B---7--7--7--8--8-------------| x2 

E-------------------10--10-10-|
B---7--7--7--8--8-------------| x2 

E-------------------------------7--7--7--|------------------|
B------------7--7--7--8--8-------------- |--(x2)----10--8--7|

Em
Наш диван давно провис
Em
Не дают нам больше виз
D
в города
Bm
В океаны

Em
Ничего не бойся ты
Em
Мы с тобою до конца
D
Только ты
Bm
Только я
Bm
Только....

Em D
Будет поздно, будет рано
Bm
Время не стоит на месте
Em D
Твое сердце, обнимая
Bm
я ловлю тебя на мысли
x2

Em C G Bm

Em
И рука моя дрожит
Em
Голос все сильней хрипит
Bm
Мне страшно
Bm
А может и нет

Em
Мы взялись рука к руке
Em
Мы вложили столько в нашу жизнь
Bm
А с нами
Bm
А снами...

Em D
Будет поздно, будет рано
Bm
Время не стоит на месте
Em D
Твое сердце, обнимая
Bm
я ловлю тебя на мысли
x2 
Наверх