Аккорды «Agnostic Front»

Agnostic Front
Agnostic Front — американская хардкор группа, основана в Нью-Йорке в 1982 году. Текущий состав Роджер Майрет (Roger Miret) — вокал Винни Стигма (Vinnie Stigma) — гитара Джо Джеймс (Joe James) — гитара Майк Галло (Mike Gallo) — бас Стив Галло (Steve Gallo) — ударные История группы. 1982—1992 Отличительной чертой группы, особенно на раннем периоде, всегда являлась постоянная смена состава, иногда сменялись по нескольку музыкантов в год. Единственным неизменным участником является нью-йоркский… Читать полностью... Agnostic Front — американская хардкор группа, основана в Нью-Йорке в 1982 году. Текущий состав Роджер Майрет (Roger Miret) — вокал Винни Стигма (Vinnie Stigma) — гитара Джо Джеймс (Joe James) — гитара Майк Галло (Mike Gallo) — бас Стив Галло (Steve Gallo) — ударные История группы. 1982—1992 Отличительной чертой группы, особенно на раннем периоде, всегда являлась постоянная смена состава, иногда сменялись по нескольку музыкантов в год. Единственным неизменным участником является нью-йоркский гитарист и основатель коллектива Винни Стигма (англ. Vinnie Stigma), экс-участник группы Eliminators. В 1983 году был записан дебютный EP United Blood. Вокалистом группы к этому времени стал Роджер Мирет (англ. Roger Miret), ударником — Рей Барбери, гитаристом — Адам Муши. В 1984 году выпущен альбом Victim In Pain. К тому времени на ударных был Дейв Джонс (чуть позднее его сменил Джим Колетти), бас-гитара — Роб Кабула. Альбом стал заметным явлением на местной хардкор-сцене. Agnostic Front стали часто давать концерты в знаменитом нью-йоркском клубе CBGB (помимо них в клубе выступали, например The Cro-Mags, Murphy's Law), где вокруг группы формируется своя команда фанов (саппортеров). Альбом Cause For Alarm, вышедший в 1986 году, стал ближе к набирающему популярность трэш-металу, чем к традиционному хардкор-звучанию. Это не могло не вызвать недовольства среди фэнов-хардкорщиков, часть которых отвернулась от группы. Традицию ухода в трэш-метал продолжил и следующий альбом — Liberty And Justice For…. В том же году вокалист группы Роджер Мирет был арестован и обвинён в хранении наркотиков. Тем не менее, это не помешало группе отправиться в свой первый европейский тур (Мирета временно заменил Майкл Шост). После выхода Мирета из заключения, при помощи членов Madball и Sick of It All был записан альбом One Voice. Но, в том же году группа распалась, напоследок выпустив сборник To Be Continued и концертник Last Warning. Последний концерт был дан в том же CBGB в декабре 1992 года. 1997 — наши дни. В 1997 году Стигма и Майрет предприняли попытку реанимировать группу. За барабаны был приглашён Джимми Колетти, басистом вновь стал Роб Кабула. Группа заключила контракт с «Epitaph Records», и в 1998 году выпустила альбом Something's Gotta Give (хотя, по замечанию Мирета, первоначальное название было Today, Tomorrow, Forever), где вернулась к классическому хардкор-звучанию. В следующем альбоме группы, Riot, Riot, Upstart, приняли участие Билли Милано из M.O.D. и Ларс Фредриксен из Rancid. В 2002 году Мирет занялся сторонним проектом Roger Miret and the Disasters, звук которого был ближе к Oi! звучанию, в том же году группа снялась в фильме Мэттью Барни (Matthew Barney) Cremaster 3 (совместно с Murphy’s Law). В 2004 году произошла смена лейбла на Nuclear Blast Records. Дискография: * United Blood EP (1983) Last Warning Records * Victim in Pain (1984) Rat Cage Records * Cause for Alarm (1986) Relativity/Combat Records * Liberty and Justice for... (1987) Relativity/Combat Records * Live at CBGB (1989) Relativity Records * One Voice (1992) Relativity/Roadrunner Records * Last Warning (1993) Relativity/Roadrunner Records * Raw Unleashed (1995) Grand Theft Audio * Something's Gotta Give (1998) Epitaph Records * Puro Des Madre (en espanol) (1998) Hellcat Records * Riot, Riot, Upstart (1999) Epitaph Records * Dead Yuppies (2001) Epitaph Records * Working Class Heroes (2002) Scream/Knock Out – split with Discipline * Another Voice (2004) Nuclear Blast Records * Live at CBGB's - 25 Years of Blood, Honor and Truth (2006) Nuclear Blast Records * Warriors (2007) * My Life My Way (2011) Скрыть...
Популярные аккорды Agnostic Front:
алфавиту | просмотрам | случайно
  • INTRO
    E-|---------------------------------------------------------------------------|
    B-|---------------------------------------------------------------------------|
    G-|-------------------4-----------------7-------------------------------------|
    D-|-2-----------------4--44444444444444-7--77777777777777-7-------------------|
    A-|-2--22222222222222-2--22222222222222-5--55555555555555-7--77777777777777---|
    E-|-0--00000000000000-------------------------------------5--55555555555555---|…
  • INTRO:
    
    G:-----------------------|
    D:-------------------------|
    A:-5>---4>---------------|
    E:-------------7>----------|
    
    VERSE:
    
    G:----------------------------|
    D:----------------------------|
    A:---------------------5---4--|
    E:-7--7777777------------|
    
    CHORUS:
    
    G:---------------------|
    D:---------------------|
    A:-------------------------
    E:-7-7-7-7---3----5----|
    
    BRIDGE:
    
    G:-------------------------------------|
    D:-------------------------------------|
    A:----------7-7-7--------------------|
    E:-7-7-7----------7-7-7--3---5---|…
  • INTRO:
    
    G:----------------------------------
    D:----------------------------------
    A:-----8---10--8--10
    E:----------------------------------
    
    VERSE:
    
    G:-------------------------------------
    D:-------------------------------------
    A:---------------------------------8---
    E:-5--55555555--8--7-8--------
    G:--------------------------------------|
    D:--------------------------------------|
    A:---------------------------------10--|
    E:-5--55555555--8--7-8----------|
    
    CHORUS:
    
    G:------------------------------
    D:--------------------------------
    A:--8--8888--10---10-9-8-
    E:---------------------------------
    G:----------------------------------
    D:-----------------------------------
    A:--8--8888--10---10-11-12-
    E:----------------------------------
    G:----------------------------------
    D:-----------------------------------
    A:--8--8888--10--10-9-8----
    E:----------------------------------
    G:----------------------------------
    D:----------------------------------
    A:--8----10-10-10---10-10--
    E:---------------------------------…
  • VERSE - listen to the record
    E :--------------------------------------------
    B :--------------------------------------------
    G :-----------------5--9--7-7-7-7--------------
    D :-7-7--7--7-7--7--5--9--7-7-7-7--------------
    A…
  • Verse                                                   x4
    
    G|----------------------------------------------------------------------|
    D|-----------------------------------------------------------------------|
    A|-2-2-2-2-2-2-2-2-5-----------------------------------------------|
    E|--------------------------5-3-5-3-5---------------------------------|
    
    Chorus:…
  • Verse
    e|------------------------|
    B|------------------------|
    G|------------------------|
    D|--5/7-5/7-5/7-5/7-------|
    A|--3/5-3/5-3/5-3/5-7-----|
    E|------------------5-----|
    
    Chorus
    e|------------------------|
    B|------------------------|
    G|------------------------|
    D|--------------9-9-9-----|
    A|--7-7-7-7-7-7-7-7-7-10--|
    E|--5-5-5-5-5-5-------…
  • Intro/verse
    e|--------------------------| 
    B|--------------------------| 
    G|-9-9--9-9-----------------| 
    D|-9-9--9-9-10-9-9--9-9-9---| 
    A|-7-7--7-7-10-9-9--9-9-9---| 
    E|----------8--7-7--7-7-7---|   x6
    
    Chorus
    e|----------------------------------|…
  • Tuning: E A D E G B e
    
    Intro/Chorus-
    
    e|----------------|        e|-----------|                                      
    B|----------------|        B|-----------|                               
    G|----------------| (x3)   G|-----------|…
  • Intro:
    G|-------------------------------------------------|
    D|-------------------------------------------------|
    A|-------------0-0-0-0-0-0-3-3-3-3-3-3-5-5-5-5-5-5-|
    E|-0-0-0-0-0-0-------------------------------------|
    
    Verse:
    G|-------------------------------------------------|
    D|-------------------------------------------------|
    A|-------------------------------5-5-5-5-5-5-5-5-5-|
    E|-0-0-0-0-0-0-0-0-0-0-0-0-0-0-0-------------------|
    
    G|-------------------------------------------------|
    D|-------------------------------------------------|
    A|-------------------3-3-3-3-3-3-3-5-5-5-5-5-5-5-5-|
    E|-0-0-0-0-0-0-0-0-0-------------------------------|
    
    Pre-chorus:
    G|-------------------|
    D|-------------------|
    A|-7-7-5-5-0-0-0-0-2-|
    E|-------------------|
    
    Chorus:
    G|-----------------------------------------|
    D|-----------------------------------------|
    A|-2-*-2-*-2-----------5-5-5-5-5-3-3-3-3-3-|
    E|-----------0-0-0-0-0---------------------|
    
    Bridge:
    G|---------------3-5-3-----|
    D|-----------3-5-------5-3-|
    A|-7-7-3-3-5---------------|
    E|-------------------------|…
  • E                          G
    From the east coast to the west coast
    D                 E
    Gotta gotta gotta go
    E               G
    Two sounds of a revolution
    D                 E
    Gotta gotta gotta go
    E             G
    In…
Наверх