Аккорды Аквариум - Неизъяснимо

Добавлено: @romashka
Дата добавления: 17 Ноября 2019г.
Рейтинг:
0.0
Просмотров: 24
Транспонировать - +
Каподастр на 4-м ладу 
 
Вступление:
  С           F          G   C             F          G
E-0-------------3-0-0-3-1-----------0------1---3h0-0----
B-1-1-1-0-1-0-1----1-------0-1---1-1-0-1-0-1-1------1---
G-0-0---------2-----------0--0--0----------2--2------0--
D-2-2---------3--------------2-2-----------3----------0-
A-3----------------------2---3------------------------2-
E-------------------------------------------------------

  С     F    G  C    F   G   C
E-0--0--1--0----0---0----------
B--1---------3----3--1---0---1-
G------------------------------
D------------------------------
A------------------------------
E------------------------------

C                  F            G
 То, что происходит я даже не знаю
C             F            G
 Я иду в огне, но я не сгораю
Am                   D
  Катишься по рельсам гасишься и гаснешь
Dm            Dm7   Fm
  И вдруг это сердце  распахнуто настежь
C       Am          Dm
 И вагон, где ты был  проносится мимо
    F C Dm        G C F G C F G
И всё     неизъяснимо.

C                   F           G
 То, что происходит, чудная картина
C                 F              G
 Радуга над башней Святого Валентина
Am                 D
  Все мои проблемы, раскрашенный воздух
Dm               Dm7  Fm
  А всё, что мне нужно  сказано в звездах
C      Am     Dm
 И мысли летят  клочьями дыма
    F C Dm        G F C
И всё     неизъяснимо.

G
 А поезд едет дальше
C
 И гудок гудит снова
G
 И все пассажиры
C
 Вымазаны красным
Am
  А я стою молча
Em
  Я не знаю ни слова
Dm
  Но всё, что было смутным
F           G
 Становится ясным.

C                   F             G
 День еще не прожит, путь еще не начат
C                   F               G
 Слова в этих книгах так мало что значат
Am                 D
  Я думал, я умный, ходил играл в прятки
Dm               Dm7  Fm
  Я больше не стараюсь, теперь всё в порядке
C       Am        Dm
 И огонь в глубине  горит негасимо
    F C Dm        G С F G С F G
И всё     неизъяснимо.

Заключение: C F G }x14 C 
comments powered by Disqus
Наверх