Аккорды Аквариум - Как нам вернуться домой

Добавлено: @romashka
Дата добавления: 28 Марта 2020г.
Рейтинг:
0.0
Просмотров: 88
Транспонировать - +
Вступление:
  G             Dm        C         G
E----------------------------------------
H-------1-0------------------------------
G-0--2-4---2-4-0-0------------------0-4-4
D-----------------3h2-3---3-2-0-2--------
A----------------------------------------
E----------------------------------------
  G             Dm        F       Hsus4       
E-------------------------------------------
H-------1-0---------------------------------
G-0--2-4---2-4-0-0--------0-5-5----4-4------
D-----------------3h2-3-----------4---------
A-------------------------------------------
E--------------------------------------3sl8-


Em G F# C - 4х

Em                                 G
  Взгляд влево был бы признаком страха,
F#                       C
  Взгляд вправо был бы признаком сна.
Em                   G
  И мы знали, что деревья молчат –
F#                              C
  Но мы боялись, что взойдёт Луна.
Am    C                   Em      G
У-у, как нам вернуться домой, когда мы одни;
Am    C                    Em
У-у, как нам вернуться домой?

Проигрыш: Em G F# C - 2х

Em                                 G
И не было грани между сердцем и Солнцем,
F#                       C
Не было сил отделять огонь от воды.
Em                   G
И мы знали, что для нас поёт свет,
F#                              C
Но мы искали след Полынной звезды.
Am    C                   Em      G
У-у, как нам вернуться домой, когда мы одни;
Am    C                   H  H
У-у, как нам вернуться домой?

Проигрыш: F#m G# Hm F# Am E Em F# Hm F# Am E Gm D F E H H

Em                                 G
Я хотел бы, чтобы я умел верить,
F#                       C
Но как верить в такие бездарные дни -
Em                   G
Нам, потерянным между сердцем и полночью,
F#                              C
Нам, брошенным там, где погасли огни?
Am    C                   Em      G
У-у, как нам вернуться домой, когда мы одни;
Am    C                   Em G
У-у, как нам вернуться домой?

Am    C                          Em       G
У-у, как нам вернуться домой, когда мы одни;
Am    C          H        Em G
У-у, как нам вернуться домой?
Am C Em G
У-у… У-у…
Am C Em G
У-у… У-у…
Am C Em G
У-у… У-у…
Am C Em G
У-у… У-у…
Am C Em G
У-у… У-у…
Наверх