Аккорды Аквариум - Молитва и пост

Добавлено: @romashka
Дата добавления: 03 Июля 2020г.
Рейтинг:
0.0
Просмотров: 116
Транспонировать - +
Вступление:
A* A6* A7* A6* - 2p.
A Asus4 A/C A - 2p.

     A*               A6*   A7*                   A6*
Проснулся сегодня утром от того, что ползу как змея,
      A*            A6*         A7*            A6*
При мне говорят моё имя, но я знаю, что это не я,
               G    D                       A Asus4 A A/C A, A A/C A
Я работал всю жизнь, похоже - коту под хвост,
    F        E             A  A/G A/F# A/F A/E E
Остаётся одно - Молитва и Пост.

Проигрыш: A Asus4 A A/C A, A A/C A - 2p.

Я встретился с Миком Джаггером в "Juan Les Pins" на пляжу,
Он сидел на красивом матрасе и не видел, как я лежу,
А я лежал рядом, немногословен и прост,
Лежал и думал: «Ну на тебе!, хэй!» - Молитва и Пост.

Проигрыш:
A Asus4 A A/C A, A A/C A - 2p.
G D A Asus4 A A/C A, A A/C A
F E A A/G A/F# A/F A/E E

  A                    A/C A    A                  A/C A
Учись у меня воздержанию,   не суй что попало в рот
        A                 A/C A     A
Не смотри, что я пью с утра -  это йога наших широт,
Просто перемыкает, и хочется выйти на мост,
А выйдешь и думаешь: "Нафиг, хэй!, Молитва и Пост".

Заключение:
     A Asus4 A A/C A  A A/C A A Asus4 A A/C A     A A/C A
E-12--12----12--12----12-------12--12--12-----12----------
H---13--13----13--13----13-10----13--13--13-13--13-10--10-
G----------------------------------------------------12---
D---------------------------------------------------------
A---------------------------------------------------------
E---------------------------------------------------------
 G           D         A Asus4 A A/C A A A/C A
E--15-12-vb15---12h10------12---------12--------
H--------------------13--10--13---------13-vb13-
G-----------------------------------------------
D-----------------------------------------------
A-----------------------------------------------
E-----------------------------------------------
F    E               A  A/G A/F# A/F A/E E
E--17---11h10----------------------------------------------------------
H------------13h10h8-10-13sl10-10--13h10-13h10-13h10-13h10-13h10-13h10-
G----------------------------------------------------------------------
D----------------------------------------------------------------------
A----------------------------------------------------------------------
E----------------------------------------------------------------------
A Asus4 A A/C A, A A/C A - 2p.
G D A Asus4 A A/C A, A A/C A
F E A A/G A/F# A/F A/E E A

Каподастр на 2-м ладу.
Наверх