Аккорды Аквариум - Второе стеклянное чудо

Добавлено: @romashka
Дата добавления: 16 Октября 2020г.
Рейтинг:
0.0
Просмотров: 29
Транспонировать - +
Вступление:
e|----12--5-5s-7------12--5-5s-7------0-----|
B|--------------------------------------0---|
G|----12--5-5s-7------12--5-5s-7----------2-|
D|------------------------------------------|
A|------------------------------------------|
E|-0---------------0---------------0--------|

C D Em Bm Am B7 Em

   Em                Bm
Когда ты был мал, ты знал всё, что знал
    C       D          Em
И собаки не брали твой след
Em                     Bm
Теперь ты открыт, ты отбросил свой щит
      C            D          Em
Ты не помнишь, кто прав и кто слеп
     C       Cadd+11 B7sus4
Ты повесил мишени на грудь
      Am7      D#dim  Emadd9
Стоит лишь тетиву натянуть
     C     Bm        Am         B7         Em
Ты ходячая цель, ты уверен, что верен твой путь

Проигрыш:
e|----12--5-5s-7------12--5-5s-7------0-----|
B|--------------------------------------0---|
G|----12--5-5s-7------12--5-5s-7----------2-|
D|------------------------------------------|
A|------------------------------------------|
E|-0---------------0---------------0--------|

C D Em Bm Am B7 Em

   Em                   Bm
Но тем, кто не спит, не нужен твой сад
      C         D          Em
В нём нет ни цветов, ни камней
  Em                Bm
И даже твой бог никому не помог
        C        D         Em
Есть другие, светлей и сильней
    C     Cadd+11   B7sus4
И поэтому ты в пустоте
       Am       Cm6       Emadd9
Как на старом забытом холсте
       C          Bm        Am        B7        Em
Ни в начале, ни в центре, и даже ни в самом хвосте

Заключение:
e|----12--5-5s-7------12--5-5s-7------0-----|
B|--------------------------------------0---|
G|----12--5-5s-7------12--5-5s-7----------2-|
D|------------------------------------------|
A|------------------------------------------|
E|-0---------------0---------------0--------|

C D Em Bm Am B7 Emadd9
Наверх