Аккорды Аквариум - Собачий вальс

Добавлено: @romashka
Дата добавления: 02 Февраля 2022г.
Рейтинг:
0.0
Просмотров: 52
Транспонировать - +
[Вступление]: G G* D G
G* - аккорд G со второй струной на первом ладу
G G* D Dsus4 G D

                    Am
E------------------------------------------------
B------------------------------------------------
G------------------------------------------------
D--2(сразу делаем слайд на 2 лада вперёд)-4-4-4-4
A--1--------------------------------------3-3-3--
E------------------------------------------------

играем 2 раза

C Em Am D D/G D/F#

C          G            D                 G
Сказали "добрые люди", что нам грех жить на воле,
C    G               D                                G
Наш путь - терпеть и страдать и лечь костьми в чистом поле.
C
Собачий вальс...
                                     Em    G
Звучит по всем направленьям, дыши не дыши.
Am           E7sus4      C   D  D/G D/F#
Собачий вальс     - болезнь души.

G G* D Dsus4 G D

                    
                    Am
E------------------------------------------------
B------------------------------------------------
G------------------------------------------------
D--2(сразу делаем слайд на 2 лада вперёд)-4-4-4-4
A--1--------------------------------------3-3-3--
E------------------------------------------------


C Em Am D D/G D/F#

C      G          D               G
Их мир катится в пропасть на фоне нашего роста,
C    G           D               G   
Ещё бы сжечь эти книги - как всё было бы просто.
C
Собачий вальс...
                                           Em G G*
Зашторить окна и двери, не впускать сюда свет.
Am  
Собачий вальс...
E7sus4          C     D    D/G  D/F#
Необходимости в других уже нет.

G G* D Dsus4 G D

                    Am
E------------------------------------------------
B------------------------------------------------
G------------------------------------------------
D--2(сразу делаем слайд на 2 лада вперёд)-4-4-4-4
A--1--------------------------------------3-3-3--
E------------------------------------------------


C Em Am D D/G D/F#

C     G             D             G
Да только Бог шельму метит, и в алтаре горит свечка,
C      G                D                 G
Можно врать людям долго, но невозможно врать вечно.
C      
Собачий вальс...
                                       Em G G*
У всех в ушах, хотя на деле вокруг тишина.
Am   E7sus4         C          D   D/G D/F#
Из темноты загадочно восходит луна.

G G* D Dsus4 G D

                    Am
E------------------------------------------------
B------------------------------------------------
G------------------------------------------------
D--2(сразу делаем слайд на 2 лада вперёд)-4-4-4-4
A--1--------------------------------------3-3-3--
E------------------------------------------------


C Em Am D D/G D/F# 

Играется боем вниз-вверх-вниз.
Каподастр на 3-м ладу. 
Наверх