Аккорды Аквариум - Когда пройдёт боль

Добавлено: @romashka
Дата добавления: 28 Августа 2022г.
Рейтинг:
0.0
Просмотров: 35
Транспонировать - +
[Вступление]: 
 
E----------------0---------0-3-1-0- 
H------1-----3--------------------- 
G-0------------------2--0---------- 
D---------------------------------- 
A---------------------------------- 
E---------------------------------- 
 
E----------------0------0-3-5-3--- 
H------1-----3------------------3- 
G-0------------------2------------ 
D--------------------------------- 
A--------------------------------- 
E--------------------------------- 
 
E-0-3-5-3--0----------0----------0------ 
H------------3-1-3-1----3-1-------3-3h1- 
G---------------------------2-0--------- 
D--------------------------------------- 
A--------------------------------------- 
E--------------------------------------- 
 
              Am   G              F   C 
Когда пройдёт дождь - тот, что уймёт нас, 
            Am        Dm      G 
Когда уйдёт тень над моей землёй, 
      Am     G                Dm     F 
Я проснусь здесь; пусть я проснусь здесь, 
            Dm G           C    
В долгой траве, рядом с тобой. 
 
И пусть будет наш дом беспечальным, 
Скрытым травой и густой листвой. 
И узнав всё, что было тайной, 
Я начну ждать, когда пройдёт боль. 
 
[Проигрыш]: Dm C G - 4p. 
 
E----------------0---------0-3-1-0- 
H------1-----3--------------------- 
G-0------------------2--0---------- 
D---------------------------------- 
A---------------------------------- 
E---------------------------------- 
 
E----------------0------0-3-5-3--- 
H------1-----3------------------3- 
G-0------------------2------------ 
D--------------------------------- 
A--------------------------------- 
E--------------------------------- 
 
E-0-3-5-3--0----------0----------0------ 
H------------3-1-3-1----3-1-------3-3h1- 
G---------------------------2-0--------- 
D--------------------------------------- 
A--------------------------------------- 
E--------------------------------------- 
 
Так пусть идёт дождь, пусть горит снег, 
Пускай поёт смерть над моей землёй. 
Я хочу знать; просто хочу знать, 
Будем ли мы тем, кто мы есть, когда пройдёт боль. 
 
Заключение: Dm C G - 4p. C 

Каподастр на 2-м ладу.
Наверх