Аккорды Аквариум - Город

Добавлено: @romashka
Дата добавления: 23 Октября 2022г.
Рейтинг:
0.0
Просмотров: 35
Транспонировать - +
[Вступление]: Am E Am x2
              Dm Dm F E
     Либо
e||-----|--------------------------------------------|------------------------------0-----|
B||-----|------0---------------0---1-----------------|------3---1---0---1---1~3---------2-|
G||---Am|----------2---1---2-----------2-------D7sus2|------------------------------------|
D||---Am|----------------------------------2---D7sus2|------------------------------------|
A||-----|--------------------------------------------|------------------------------------|
E||-----|--------------------------------------------|------------------------------------|

e||-----|------0-----------------1----------|--------------------|------------0-----|
B||-----|----------3----1-0-1--3------------|-----3--1--3--------|---------1--------|
G||---Dm|----------------------------------C|--------------------|E-----------------|
D||---Dm|----------------------------------C|--------------------|E-----------------|
A||-----|-----------------------------------|--------------------|------------------|
E||-----|-----------------------------------|--------------------|------------------|


Am     E   Am   Am       E   Am
Под небом голубым есть город золотой
Dm        Dm6   Am    Am     F      E
С прозрачными воротами и яркою звездой
Am     E     Am     Am       E   Am
А в городе том сад, всё травы да цветы
Dm     Dm6   Am     Am    E           Am
Гуляют там животные невиданной красы

[Припев]:
    A               Dm
 Одно - как желтый огнегривый лев
       G            C
 Другое - вол, исполненный очей
      Dm                  F
 С ними золотой орёл небесный
     Dm                        F  E  Am
 Чей так светел взор незабываемый

Am     E   Am   Am       E   Am
А в небе голубом горит одна звезда
Dm  Dm6   Am           Am     F      E
Она твоя, о ангел мой, она твоя всегда
Am     E     Am     Am       E   Am
Кто любит, тот любим, кто светел, тот и свят
Dm     Dm6   Am          Am    E           Am
Пускай ведёт звезда тебя дорогой в дивный сад

[Припев]:
    A               Dm
 Тебя там встретит огнегривый лев
    G            C
 И синий вол, исполненный очей
   Dm                  F
 С ними золотой орел небесный
  Dm                        F  E  Am
 Чей так светел взор незабываемый 

|
|Аккорды которые находятся в центре табов,играть
|как аккорд
|
|====================
|D7sus2 [X X 0 2 1 0]
|====================
| 
Наверх