Аккорды Аквариум - Пока не начался джаз

Добавлено: @romashka
Дата добавления: 12 Апреля 2013г.
Рейтинг:
0.0
Просмотров: 326
Транспонировать - +
C-G--C-G--C-G-A-Cm(III)-G(III)

Куплет:
1-------7----------------------------
2------------------7--8-----3-----5--
3------------------------------------
4-------5----------------------------
5------------------5--7-----2-----3--
6------------------------------------    G
В трамвайном депо пятые сутки бал;


1---7--------------------------------
2-----------7------8--------3-----5--
3------------------------------------
4---5--------------------------------
5-----------5------7--------2-----3--
6------------------------------------    
Из кухонных кранов бьет веселящий газ.

D                G        C     C/h         Am
Пенсионеры в трамваях говорят о звездной войне.
   C    G   C       G
Держи меня, будь со мной.
   C    G     A     Cm(III) G
Храни меня, пока не начался джаз.


Прощайте, друзья, переставим часы на час;
В городе новые стены, но чистый снег;
Мы выпускаем птиц - это кончился век.
Держи меня, будь со мной,
Храни меня, пока не начался джаз.

Проигрыш (как припев): C-G--C-G--C-G-A-Cm-G

Ночью так много правил, но скоро рассвет;
Сплетение ветвей - крылья, хранящие нас.
Мы продолжаем петь, не заметив, что нас уже нет.
Держи меня, будь со мной,
Храни меня, пока не начался джаз...

C-G--C-G

  C    G    A          Cm    G     
Веди меня туда, где начнется джаз.
comments powered by Disqus
Наверх