Аккорды Alai Oli - Город превращается в море

Добавлено: @romashka
Дата добавления: 12 Мая 2013г.
Рейтинг:
5.0
Просмотров: 766
Транспонировать - +
G/A G/D G G/E
1------------3-----------------------------3--------------
2---------3---------3----------------3-------------3-----
3------0------------------------0-------------------------
4--------------------------0-------------------------------
5---0-----------------------------------------------------
6----------------------------------------------------------

1------------3-----------------------------3--------------
2---------3---------3----------------3-------------3-----
3------0------------------------0-------------------------
4----------------------------------------------------------
5----------------------------------------------------------
6-3------------------------0------------------------------- 


Am                      D                          G                      Em 
Мы бросали огромные тени на пыльный асфальт на желтые стены
Из ладони отца закатные лучи тонули в размеренных водах реки
И словно самолеты бескрайнее небо пронзали от края до края
Прошу ещё раз улыбнись мне при встрече я тебе вслед закат отпускаю

А город превращается в море город превращается в море в огромное синее море
Город превращается в море в огромное синее море в огромное море

Словно с первого взгляда как пули как птицы коснулись плеча пролетая

Одни превращаются в годы и память секунды стирает но
Если хочешь в твой город дождливый я принесу тебе солнце на блюде
Если ты поешь свою песню она меня любит слышите люди

А город превращается в море город превращается в море в огромное синее море
Город превращается в море в огромное синее море в огромное море

Мы бросали огромные тени на пыльный асфальт на желтые стены
Из ладони отца закатные лучи тонули в размеренных водах реки
И словно самолеты бескрайнее небо пронзали от края до края
Прошу ещё раз улыбнись мне при встрече я тебе вслед закат отпускаю
Наверх