Аккорды Alcest - Autre Temps (Acoustic)

Добавлено: @romashka
Дата добавления: 05 Августа 2022г.
Рейтинг:
0.0
Просмотров: 30
Транспонировать - +
[Intro/End]

Dsus2 | Asus4 | Cadd9* | G6sus4


[Verse]
               Dsus2     Cadd9(add11) Cadd9     Dsus2   
    Une prière lointaine que porte le vent du soir

               A#6       Cadd9(add11) Cadd9     Dsus2
    Anime les feuilles dans leur danse alanguie

               Dm        Csus4(add9)  Cadd9     Dsus2   
    C'est le chant des vieux arbres entonné pour toi

               A#6       Csus4(add9)  Cadd9     G6sus4  G6
    Pour ces bois obscurs maintenant endormis


[Chorus 1,2]
    Dm Dsus2 | Am Asus4 | Cadd9* | G6sus4


[Chorus 1 end]
    e|----------|---------------0~-------|
    B|----3~----|---3--3--------3~-------|
    G|----0~----|---0--0--------2~-------|
    D|----3~----|---0--0--------0~-------|
    A|----1~----|---3--3-----------------|
    E|----------|---1--0-----------------|


Interlude and Verse 2 (Adapted for 1 guitar):
    e|-------0-----|-------0-----|-------8-5---|
    B|-----6---6---|-----6---6---|-----6-------|
    G|---7---------|---5---------|---7---------|
    D|-0-----------|-------------|-0-----------|
    A|-------------|-3-----------|-------------|
    E|-------------|-------------|-------------|

    e|----------5---|----------5---|----------5---|
    B|-----6--8-----|-----6--8-----|-----6--8-----|
    G|---7----------|---7----------|---7----------|
    D|-0------------|--------------|--------------|
    A|--------------|--------------|--------------|
    E|--------------|-6------------|-8------------|
    
    e|-------0----------|-------0----------|
    B|-----6---6--------|-----6---6--------|
    G|---7--------5h7---|---7--------5h7---|
    D|-0----------------|-0----------------|
    A|------------------|------------------|
    E|------------------|------------------|
    

[Verse 2]
               Dsus2   Cadd9(add11) Cadd9    Dsus2   
    Sans nous attendre tant de saisons ont passé

               A#6     Cadd9(add11) Cadd9    Dsus2
    Les feuilles dorées s'en allant mourir à terre
    
               Dm      Csus4(add9)  Cadd9    Dsus2   
    Renaîtront un jour sous un ciel radieux

               A#6     Csus4(add9)  Cadd9    Dsus2
    Mais notre monde érodé restera le même


[Bridge]
    A#6              Dm         Csus2
    Et demain toi et moi serons partis

    A#6              Dm         Csus2
    Et demain toi et moi serons partis
    
    A#           G      A#                 Csus4    C
    Sans nous attendre tant de saisons ont passé


Chords:
       Dsus2    Dm   Asus4    Am   Cadd9   Cadd9*  Cadd9(add11)  Csus4(add9) 
    e|---0---|--1--|---0---|--0--|---0---|---0---|------0------|------1------|
    B|---3---|--3--|---3---|--1--|---3---|---3---|------3------|------3------|       
    G|---2---|--2--|---2---|--2--|---0---|---0---|------0------|------0------|      
    D|---0---|--0--|---2---|--2--|---2---|---0---|------3------|------3------|      
    A|---x---|--x--|---0---|--0--|---3---|---3---|------3------|------3------|      
    E|---x---|--x--|---x---|--x--|---x---|---x---|------x------|------x------|
    
    
       Csus4     C     Csus2    G6sus4    G6       G      A#6      A#   
    e|---3---|---3---|---3---|----0----|---0---|---3---|---x---|---x---|
    B|---6---|---5---|---3---|----3----|---3---|---3---|---3---|---3---|
    G|---5---|---5---|---0---|----0----|---0---|---4---|---0---|---3---|
    D|---3---|---5---|---x---|----0----|---0---|---5---|---3---|---3---|
    A|---3---|---3---|---3---|----3----|---2---|---5---|---1---|---1---|
    E|---x---|---x---|---x---|----3----|---3---|---3---|---x---|---x---|



************************************

| ~  Vibrato
| h  Hammer-on
| x  Dead note

************************************
Наверх