Аккорды Александр Барыкин - Ангелы

Добавлено: @vitos
Дата добавления: 20 Августа 2016г.
Рейтинг:
0.0
Просмотров: 766
Транспонировать - +
Вступление:

E|-------7------------3>5----3~2-----0~2------------------------|
H|-------8----------1---5--------3-------3-------0-1-0~1~0------|
G|-----7---7--7---2-----5----------2-------2---0------------0---|
D|------------------------------------------------------------2-|
A|-2>7----------0-----------------------------------------------|
E|-------------------------------------------0------------------|
 
E|-------7------------3>5----3~2-----0~2--------фл12------------|
H|-------8----------1---5--------3-------3-----------фл12-------|
G|-----7---7--7---2-----5----------2-------2--------------------|
D|--------------------------------------------------------------|
A|-2>7----------0-----------------------------------------------|
E|-------------------------------------------0------------------|
 
E|----------0-------------------------7-----3-----5-------------|
H|----------1---------0-1-0~1~0-------8-----5-----7-------------|
G|--------0----------------------0----7-----5-----7-------------|
D|---------------------------------------0-----0----------------|
A|-0-2-3--------------------------------------------------------|
E|-------------0-2-3--------------------------------------------|


Em              Hm7                           
Где мой дом - струится горький дым,
Am7              Em     D        
Блудный сын всё пьёт вино
Em            Hm7                       
В небесах мой Бог непостижим,
Am7    C    G     D         
На земле пока темно


Em  Hm7  Am7     C         
По Руси метели вьют,
Cm      D  Em       
Да Ангелы поют,
Am7  D   G          
Ангелы поют


Где мой дом, в ночи прошепчет грусть,
Мне дано навек одно:
В небесах моя Святая Русь,
На земле пока темно


По Руси метели вьют,
Да Ангелы поют,
Ангелы поют


И когда последняя заря,
В мир войдёт усталый мой,
Как чернец у врат монастыря,
Я шепну: "Пора домой..."


По Руси метели вьют,
Да Ангелы поют,
Ангелы поют

Em  Hm7  Am7        C    
По Руси метели вьют,
Am7     D  Em  D7  C7  H7  Em
Да Ангелы поют...
comments powered by Disqus
Наверх