Аккорды Александр Барыкин - Держись

Добавлено: @vitos
Дата добавления: 23 Августа 2016г.
Рейтинг:
0.0
Просмотров: 253
Транспонировать - +
Вступление:

  Dm        Dm/C        B-5      A7sus4     A7  
E|-------1----------1----------0---------------|
H|-----3----------3----------3------------3--2-|
G|---2----------2----------3------------0------|
D|-0----------------------------------2--------|
A|------------3----------1----------0----------|
E|---------------------------------------------|
 
  Dm        Dm/C        B-5       Csus4      C  
E|-------1----------1----------0----------1--0-|
H|-----3----3-----3----3-----3----3-----1------|
G|---2----------2----------3----------0--------|
D|-0-------------------------------------------|
A|------------3----------1----------3----------|
E|---------------------------------------------|
 
  Dm        Dm/C        B-5      A7sus4     A7  
E|-------1----------1----------0---------------|
H|-----3----3-----3----3-----3----3-------3--2-|
G|---2----------2----------3------------0------|
D|-0----------------------------------2--------|
A|------------3----------1----------0----------|
E|---------------------------------------------|
 
  Dm         G6        Dm(5)          Gm7       
E|-------1----------3----------5-------1-------|
H|-----3----3-----5----5-----6----6----3-------|
G|---2----------4----------7-----------3-------|
D|-0----------0----------0-------------0-------|
A|-------------------------------------x-------|
E|-------------------------------------3-------|


Dm7       Em7-5          
Снова ночь, тихий свет,
Fmaj7          D#maj7               
И опять тебя со мною нет
Dm7                 C              
Ты вдали любовь храни,
     Gm Am      Dm7  Am 
Позвони,   позвони

Я один в темноте
Предаюсь всегда одной мечте,
Чтобы чаще быть с тобой,
      Gm Am       Dm 
Ангел мой,  ангел мой


Припев:
   Gm              A7            
Но ветер рвёт, и гром гремит,
  Dm               B               
А жизнь - не мёд и больно бьёт,
   F                C        Dm-C  Dm-C   
И свет, и тьма в любой душе-е-е

Но ветер рвёт, и гром гремит,
А жизнь - не мёд и больно бьёт...
     F            C          B  C
Ты крепко руль держи на вираже,
            Dm  
Любимая, держи!


Может, встать, закурить
И печаль ночной слезой омыть?
Нет, я умею побеждать!
Буду ждать и мечтать...


Припев


Проигрыш: (Dm  C  F  Gm - 2 раза A7) - 2 раза


Припев


Dm  Dm/C-B  Am   
                Dm                    
Любимая, держи!
comments powered by Disqus
Наверх