Аккорды Александр Барыкин - Друг или враг

Добавлено: @vitos
Дата добавления: 23 Августа 2016г.
Рейтинг:
0.0
Просмотров: 350
Транспонировать - +
Вступление:

Fm                             D#            Fm      
G|-8>10-10----8>10-10----6>8-8----8>10-10-| - 3
D|-8>10-10----8>10-10----6>8-8----8>10-10-| - 4
A|-6>8--8-----6>8--8-----4>6-6----6>8--8--| - 5
E|----------------------------------------| - 6


Bm        Cm               Fm       
Как много лет прошло с тех пор,
Bm     C7           Fm         
Когда увидели друг друга
Bm       D#          G#       
И наша дружба, как топор,
Bm      C7            Fm        
Рубила гниль на древе дуба

Топор был крепкий, как алмаз,
И дорогой, как изумруды
Мы берегли его с тобой,
Как чтят индусы образ Будды


Припев:
      Bm C7              Fm  
Бой часов, всё на чаше весов:
        C# D#        Fm  
Свет и мрак, друг и враг
      Bm C7              Fm  
Бой часов, всё на чаше весов:
         C# D#         Fm
Свет и мрак, друг или враг


Стареем мы, стареет и топор,
Он меньше стоит изумрудов
Алмаз непрочен стал с тех пор,
И стёрся лик златого Будды

Когда понятно стало мне,
Что нет уж прежних отношений,
Топор воткнулся в спину мне,
И я хлебнул с лихвой лишений


Припев


Но всё вернётся другу моему,
Припомнятся мои лишенья,
И до сих пор я не пойму
За что воздал своё мщенье

Расплата быстрая придёт -
Предательство нигде не в моде
И он когда-нибудь поймёт,
Что он Иудой жил в народе


Проигрыш:

G|-3-3--3>6-6--6---------------3-3--3>6-6--6----------------| - 3
D|-3-3--3>6-6--6-6-6--6-3-3----3-3--3>6-6--6-6-6--6-5>6-5>6-| - 4
A|-1-1--1>4-4--4-6-6--6-3-3----1-1--1>4-4--4-6-6--6-5>6-5>6-| - 5
E|---------------4-4--4-1-1------------------4-4--4-3>4-3>4-| - 6

G|-3-3--3>6-6--6---------------3-3--3>6-6--6-5--------------| - 3
D|-3-3--3>6-6--6-6-6--6-3-3----3-3--3>6-6--6-5--------------| - 4
A|-1-1--1>4-4--4-6-6--6-3-3----1-1--1>4-4--4-3--------------| - 5
E|---------------4-4--4-1-1---------------------------------| - 6


Припев - 3 раза
comments powered by Disqus
Наверх