Аккорды Александр Барыкин - К тебе

Добавлено: @vitos
Дата добавления: 24 Августа 2016г.
Рейтинг:
0.0
Просмотров: 484
Транспонировать - +
Вступление:

  Hm                 D       A         Hm                D       A          
E|--------------------------2-----------------------------------2-----------|
H|-------3-------3--------3---------2----------3-------3------3---------2---|
G|-----4---4---4--------2---------2----------4---4---4------2---------2-----|
D|---4-------4--------0---------2----------4-------4------0---------2-------|
A|-2--------------------------0----------2------------------------0---------|
E|--------------------------------------------------------------------------|
 
   G       D        D-Dsus4-D      G               A  Asus4    A         Hm  
E|-------3------------2~3~2--------------1----------------------------------|
H|-----0------------3-------3----------0--------------2-3--3-3-2------------|
G|---0------------2-----------2------0----------------2----2-2-2------------|
D|-------------0-------------------------------------------2-2-2----0-------|
A|-----------2-----------------------------0~2~0---0--------------0---4-0-2-|
E|-3-------3-----------------------3-------------3--------------------------|


Hm           F#m  
От тебя до меня
G               A    A-Asus4-A
Лишь четыреста вёрст 
Hm           F#m       
И под ритмы колёс -
G              A   A-Asus4-A
Мои песни до слёз

От любви до любви -
Металический бой 
Только выдох и вдох, 
Em              A      
И я рядом с тобой 


Припев:
F#/B     Hm      F#m
Ранним лучом к тебе, 
           G       A   
Летним дождём к тебе, 
F#/B      Hm      F#m 
Снежной зимой к тебе, 
                  G         A 
Нежной весной к тебе 

F#/B     Hm       A  
Ранним лучом к тебе, 
            G      A 
Птицей в окно к тебе, 
          Hm       A 
Радужным сном к тебе, 
           Em  F#          Hm   
Только к тебе,   снова к тебе... 


Проигрыш: Hm  D  A - 2 раза


От тебя до меня 
Столько призрачных лет, 
Но улыбка твоя
Дарит мне новый свет

Взяты в сердце моём 
И в горячей крови
Лишь четыреста вёрст 
От любви до любви 


Припев


Проигрыш: Hm  Hm/A  Em  A  Hm  A  G  F#m - 2 раза G  A  Hm


Припев


Окончание: Hm  Hm/A  Em  A  Hm  A  G  F#m - 2 раза G  A  Hm
comments powered by Disqus
Наверх