Аккорды Александр Барыкин - Коснись меня

Добавлено: @vitos
Дата добавления: 24 Августа 2016г.
Рейтинг:
0.0
Просмотров: 378
Транспонировать - +
Вступление:

E|-----3-------5-------7-------8-------7-------5-------3---------2-2~3~2-----|
H|-----3-------5-------7-------7-------7-------5-------3-------3---------3---|
G|---4-------5-------7-------8-------7-------5-------4-------2-------------2-|
D|-2-----2>4-----4-5-----5>7-----7-5-----5-4-----4-2-----2-0-----------------|
A|---------------------------------------------------------------------------|
E|---------------------------------------------------------------------------|
 
E|-----2-------5-------7-------8-------7-------5-------3---7-----------------|
H|-----0-------5-------7-------7-------7-------5-------3---8-----------------|
G|---0-------5-------7-------8-------7-------5-------4-----8-----------------|
D|-------2-4-----4-5-----5-7-----7-5-----5-4-----4-2-----2------7--5---5-5---|
A|-------------------------------------------------------------------7-----7-|
E|-0-------------------------------------------------------7-----------------|


Em7     F#m7-5     H7        Em        
Коснись меня своею лёгкою рукой,
G        D          C         H7   
И в голове моей закружится весна
Em7     F#m7-5         H7       C          
Коснись меня своей волшебною щекой,
Cm        G            F#7           H7      
Ведь это можешь только ты, лишь ты одна

Коснись меня, огонь угасший возроди,
И по щеке моей прокатится слеза
Коснись меня, пусть всё горит в моей груди,
Ты нежный свет, ты виноградная лоза


Припев:
     Em     C           G            D   
Поднимусь снова над землёй лишь с тобой,
     Em    C           G          D  
Поднимусь над своей нелёгкою судьбой
    Em   C            G      D   
Поцелуй наш поднимет выше небес,
      Am7          C(3)        Em7  H7(4)
Ты со мной, ты со мной, ты со мной!


Коснись меня своею лёгкою рукой,
Ты прилетела из таинственных веков
Коснись меня своей волшебною щекой,
Ты на крылах спустилась с белых облаков

Меня коснулась ты, и мрака больше нет,
Я обниму тебя и крепко, и тепло
Меня коснулась ты, и вспыхнул яркий свет
Любви нечаянной, давно забытой мной


Припев:
Поднимусь снова над землёй лишь с тобой,
Поднимусь над своей нелёгкою судьбой
Поцелуй наш поднимет выше небес,
       Am7         Cm           G   
Ты со мной, ты со мной, ты со мной!


Проигрыш:

E|-----3-------5-------7-------8-------7-------5-------3---------2-2~3~2-----|
H|-----3-------5-------7-------7-------7-------5-------3-------3---------3---|
G|---4-------5-------7-------8-------7-------5-------4-------2-------------2-|
D|-2-----2>4-----4-5-----5>7-----7-5-----5-4-----4-2-----2-0-----------------|
A|---------------------------------------------------------------------------|
E|---------------------------------------------------------------------------|
 
E|-----2-------5-------7-------8-------7-------5-------3----0-------2--------|
H|-----0-------5-------7-------7-------7-------5-------3----1-------4--------|
G|---0-------5-------7-------8-------7-------5-------4------2-------2--------|
D|-------2-4-----4-5-----5-7-----7-5-----5-4-----4-2-----2--2-------4--------|
A|----------------------------------------------------------0-------2--------|
E|-0-------------------------------------------------------------------------|


Припев:
Поднимусь снова над землёй лишь с тобой,
Поднимусь над своей нелёгкою судьбой
Поцелуй наш поднимет выше небес,
      Am7          Cm           G   
Ты со мной, ты со мной, ты со мной!
comments powered by Disqus
Наверх