Аккорды Александр Дольский - Ладони на глазах

Добавлено: @romashka
Дата добавления: 04 Июля 2018г.
Рейтинг:
0.0
Просмотров: 117
Транспонировать - +
e|-7--9--7--6-------|-9-------------------------|-7--9--7--6-------|-9--------14---------------------|
H|-7--------------5-|----------7----------------|-7--------------5-|---------------------------------|
G|-7-----------6----|-------9--7-----7--------7-|-7-----------6----|-------9------14--14----------14-|
D|------------------|----8-----9--9--------9----|------------------|----8---------------------13-----|
A|----------4-------|-9-----------------9-------|----------4-------|-9------------14--14--14---------|
E|-7----------------|----------7----------------|-7----------------|----------11---------------------|

|-7-----------------|------------------|-5----------------|------------------|-3----------------|-2----------------|
|-7--10-7--10-7--10-|-8----------------|-5--8--5--8--5--8-|-7----------------|-3--5--3--5--3--5-|-2--5--2--5--2--5-|
|-8--8--8--8--8--8--|-------9--------9-|-6--6--6--6--6--6-|-------7--------7-|-4--4--4--4--4--4-|-3--3--3--3--3--3-|
|----9--7--9--7--9--|----9--------9----|----7--5--7--5--7-|----7--------7----|----5--5--5--5--5-|----4--4--4--4--4-|
|-------------------|-7--------7-------|------------------|-5--------5-------|------------------|------------------|
|-7-----------------|------------------|-5----------------|------------------|-3----------------|-2----------------|

|----2-----------2-|------------------||----5--0----------|----5--0----------|----4--0----------|----3--0----------|
|-----3-------3----|-------2--------2-||-----7----7-----7-|-----7----7-----7-|-----7----7-----7-|-----6----6-----6-|
|------4---4-------|----2--------2----||------7------7----|------7------7----|------7------7----|------4------4----|
|-------4----------|------------------||-0----------------|-0----------------|-0----------------|-0----------------|
|-2----------------|-0--------1-------||------------------|------------------|------------------|------------------|
|------------------|------------------||------------------|------------------|------------------|------------------|

|----3--0----------|----------------2-|----------------2-|
|-----6----6-----6-|-------------2----|-2-----------2----|
|------4------4----|----------3-------|----3-----3-------|
|-0----------------|-------4----------|-------4----------|
|------------------|----4-------------|------------------|
|------------------|-2----------------|------------------|

  Bm                                     F#7
Я суетился, глупо жил, спешил в тоске и жажде,
        F#7                               Bm 
Вдруг кто-то руки положил мне на глаза однажды.
     Bm                          B7       Emadd9 
Я чувствую от глаз к вискам прохладное касанье - 
   Emadd9      Bm               C#7 F#7 Bm
Узнать кого-то по рукам немое приказанье. 
       E7
И я задумался на миг, качаясь как в вагоне, -
    G7                                 F#7 
Мужчина, женщина, старик? Неясные ладони... 

    Bm                                       F#7
Кто так уверен, что со мной был близок или дружен, 
     F#7                                        Bm
что до сих пор в судьбе земной он мне зачем-то нужен?
    Bm                          B7         Emadd9 
Ах, это ты, мой старый друг! Твоя повадка, точно!
   Emadd9        Bm                    C#7 F#7 Bm 
Но нет, ладоней полукруг лежит легко, но прочно.
       E7 
Да, вспомнил я, ведь ты ушел, и мы давно расстались.
     G7                                 F#7 
В ладонях теплых хорошо, и мир вокруг растаял... 

   Bm                                F#7
Теперь мне ясно - это ты! Откуда ты явилась?
     F#7                               Bm 
Освободи от темноты, откройся, сделай милость! 
   Bm                    B7          Emadd9
Моя вина, твоя вина - забудь, и я забуду! 
  Emadd9         Bm                    C#7 F#7 Bm
И отгадал я! Тишина... нет, не свершиться чуду. 
         E7                                  
Ах, это мама! Мама, ты? В ответ опять молчанье.
   G7                              F#7 
Заговорился. Темноты не видно окончанья.

    Bm                                      F#7 
С ума сошел я, фантазер, ведь ты скрестила руки
     F#7                                Bm 
В краю лесов, в краю озер на вечныя разлуки. 
   Bm                         B7       Emadd9
Невольно сам себе я вру с закрытыми глазами. 
Emadd9          Bm                   C#7 F#7 Bm
Нет, отгадать я не могу... Скажите имя сами.
     E7 
Ах, нет, не убирайте рук! Я памяти внимаю
    G7                                     F#7 
И слышу чей-то сердца стук, но чей? Не понимаю... 

     Bm                                     F#7
Кто так уверен, что со мной был близок или дружен,
     F#7                                    Bsus2 Bm Bsus2 Bm 
что до сих пор в судьбе земной он мне зачем-то нужен?..

B7 - x24242
Emadd9 - 024000
C#7 - xx3424
G7 - 353463
E7 - 022130
Размер 6/8, переборы импровизационные, основные - Б(321)(321) и Б32123. 
comments powered by Disqus
Наверх