Аккорды Александр Дольский - Одиночество

Добавлено: @romashka
Дата добавления: 02 Октября 2018г.
Рейтинг:
0.0
Просмотров: 38
Транспонировать - +
Вступление, проигрыш и кода:                      
E|---0-1-3-5---5-4---4--3~-----3h5p3-3h5h6--6~-5~------3~-1------------------------4--5-
B|----------------------2~------------------5~-5~-5----3~--------------------5-----3--5-
G|---0-2-3-5---5-4---4--3~------------------6~-6~------2~---2-4--5h7p5-4h5---5-----4--5-
D|-0---------3-----2----2~------------------5~-5~----0-----------------------6----------
A|----------------------------0---------------------------------0----------5--------0---
E|-------------------------------------------------------------------------------0------

E|-------5---------------5-------
B|---5-------5-------5-------5---
G|-5---5---5---5---5---5---5---5-
D|-------------------------------
A|---------------0---------------
E|-------------------------------

Am(V)                   Dm
Холодный взгляд любовь таит, 
E7                   Am
И красота гнетет и дразнит... 
Am/C                Dm     
Прекрасны волосы твои, 
G7                  Cmaj
Но одиночество прекрасней.
A7      A7/Bb         Dm 
Изящней рук на свете нет, 
G7                  Cmaj E7
Туман зеленых глаз опасен. 
    Am      E7         F A7(V) (заглушить)
В тебе всё: музыка и свет, 
      Dm     G7        Cmaj  F
Но одиночество, но одиночество,
Dm                  E7 Am
Но одиночество прекрасней. 

Am(V)                Dm
С тобою дни равны годам, 
E7                   Am
Ты утомляешь, словно праздник. 
Am/C                Dm     
Я за тебя и жизнь отдам, 
G7                  Cmaj
Но одиночество прекрасней. 
A7      A7/Bb      Dm 
Тебе идет любой наряд, 
G7                  Cmaj E7
Ты каждый день бываешь разной. 
    Am      E7         F A7(V) (заглушить)
"Счастливчик" - люди говорят, 
      Dm     G7        Cmaj  F
Но одиночество, но одиночество,
Dm                  E7 Am
Но одиночество прекрасней. 

Am(V)                   Dm
Не видеть добрых глаз твоих - 
E7                   Am
Нет для меня страшнее казни. 
Am/C                Dm     
Мои печали - на двоих, 
G7                  Cmaj
Но одиночество прекрасней. 
A7      A7/Bb      Dm 
Твоих речей виолончель 
G7                  Cmaj E7
Лишь для меня звучит, не гаснет... 
    Am      E7         F A7(V) (заглушить)
С тобою быть - вот жизни цель, 
      Dm     G7        Cmaj  F
Но одиночество, но одиночество,
Dm                  E7 Am
Но одиночество прекрасней.

E7 - 022130
A7(V) - 575685
A7/Bb - x12020
~ - арпеджио
Основной перебор - Б3231323, а в целом импровизационные
comments powered by Disqus
Наверх