Аккорды Александр Малинин - Ностальгический романс

Добавлено: @vitos
Дата добавления: 19 Октября 2016г.
Рейтинг:
0.0
Просмотров: 1 476
Транспонировать - +
Em      Em/G     Am/F#     H7         Em      Em/G     Am/F#     H7        
E|-----0--------0--------0--------2----------0--------0--------0--------2---|
H|-----0--------0--------1--------0----------0--------0--------1--------0---|
G|---0---0----0---0----2---2----2---2------0---0----0---0----2---2----2---2-|
D|--------------------------------------------------------------------------|
A|----------------------------2-------------------------------------2-------|
E|-0--------3--------2-------------------0--------3--------2----------------|
                                                                     Ночной
   Am/F#     H7       Em      Em/G        Dm       E7       Am               
E|-------0--------2--------0--------0----------1--------0--------0----------|
H|-------1--------0--------0--------0----------3--------3--------1----------|
G|-----2---2----2---2----0---0----0---0------2---2----1---1----2---2--------|
D|-----------------------------------------0--------------------------------|
A|------------2----------------------------------------------0--------------|
E|---2-----------------0--------3-------------------0-----------------------|
прохладой    полон    вечер,     Затихла в о-о-о-зере     вода               
 
Am7/G        Am/F#     H7        C       Am       Em       H7                
E|-----0-----------0--------2--------0--------0--------0--------2-----------|
H|-----1-----------1--------0--------1--------1--------0--------0-----------|
G|---0---0-------2---2----2---2----0---0----2---2----0---0----2---2---------|
D|--------------------------------------------------------------------------|
A|----------------------2--------3--------0-----------------2---------------|
E|-3-----------2-----------------------------------0------------------------|
      Зажгите на     веранде   свечи...     Как покойно      здесь,          
 
      C       E7         Am       H7        C       Am       Em               
E|--------0--------0----------0--------2--------0--------0--------0---------|
H|--------1--------3----------1--------0--------1--------1--------0---------|
G|------0---0----1---1------2---2----2---2----0---0----2---2----0---0-------|
D|--------------------------------------------------------------------------|
A|----3-------------------0--------2--------3--------0----------------------|
E|-------------0----------------------------------------------0-------------|
господа!         Зажгите на     веранде   свечи...          Как покойно           
 
  H7            Em                                                           
E|-----2-------------0--------0---------------------------------------------|
H|-----0-------------0--------0---------------------------------------------|
G|---2---2---------0---0----0---0-------------------------------------------|
D|--------------------------------------------------------------------------|
A|-2----------------------2-------------------------------------------------|
E|---------------0----------------------------------------------------------|
    здесь, господа!                                                          


Здесь юных лет ржаное поле,
Тропинка в ельнике густом,
И косы русые, и воля,
И церквушка за холмом
И косы русые, и воля,
И церквушка за холмом


Горят сердца в огне печали...
Откройте окна, чтоб вдали
Внимали отзвукам рояля
В синем небе журавли
Внимали отзвукам рояля
В синем небе журавли


           F#m7      H7       Em      Em/G        Dm       E7       Am       
E|---------------0--------2--------0--------0----------1--------0--------0--|
H|---------------2--------0--------0--------0----------3--------3--------1--|
G|-------------2---2----2---2----0---0----0---0------2---2----1---1----2---2|
D|-------------------------------------------------0------------------------|
A|--------------------2----------------------------------------------0------|
E|-----------2-----------------0--------3-------------------0---------------|
Ну что ж молчите     вы,   ей Богу?      Я, как тогда,    опять влюблён      
 
Am7/G        Am/F#     H7        C       Am          Em       H7            
E|-----0-----------0--------2--------0--------0-----------0--------2--------|
H|-----1-----------1--------0--------1--------1-----------0--------0--------|
G|---0---0-------2---2----2---2----0---0----2---2-------0---0----2---2------|
D|--------------------------------------------------------------------------|
A|----------------------2--------3--------0--------------------2------------|
E|-3-----------2--------------------------------------0---------------------|
     Прошу, побудь со мной   немного!       Жаль, что это     только         
 
   C       E7       Am       H7        C         F#   H7  Em      Em/G       
E|-----0--------0--------0--------2--------0------2----2-------0--------0---|
H|-----1--------3--------1--------0-------1-------2----0-------0--------0---|
G|---0---0----1---1----2---2----2---2----0--------3----2-----0---0----0---0-|
D|--------------------------------------2---------4----1--------------------|
A|-3-----------------0--------2--------3----------4----2--------------------|
E|----------0-------------------------------------2--------0--------3-------|
  Сон                                                                        


Ночной прохладой полон вечер,
Затихла в озере вода
Зажгите на веранде свечи...
Как покойно здесь, господа!
Зажгите на веранде свечи...
Как покойно здесь, господа!
comments powered by Disqus
Наверх