Аккорды Алена Винницкая - Рассвет

Добавлено: @romashka
Дата добавления: 02 Января 2017г.
Рейтинг:
0.0
Просмотров: 156
Транспонировать - +
4|------7---|---------5---| 
5|--5-5-----|--3--3-3-----| x4 
6|----------|-------------| 
 
2|--6--6---5--5---10---10----8--8--|--6--6---1--1---8--8---6--6--| 
3|---7--7---5--5----10---10---9--9-|---7--7---2--2---7--7---7--7-| 
 
2|--6--6---5--5---10---10----8--8--|--6--6---1--1---8--8-------10--10~~-| 
3|---7--7---5--5----10---10---9--9-|---7--7---2--2---7--7--------9---9~-| 
 
    Dm            C        Dm           C  
Заблудилась по дороге и запуталась в туман 
      Dm            C             B            C(III) 
Задохнулась свежим ветром и споткнулась тут и там 
    Dm         C             Dm           C  
Потеряла ориентир, сбилась, толком не пойму 
      F          C           Bb(VI)         A  
Это правда или, может, я во сне или в бреду 
 
Припев: 
     Dm           C  
На свет - буду бежать я 
     Dm           C  
Рассвет - не избежать мне 
     Bb             F  
Нас нет - всё исчезает 
   G              A  
Ответ кто-то же знает 
 
От добра добра не ищут, убеждаюсь ещё раз 
Кто-то ищет, где-то рыщет и находит, но не нас 
На рисованной картине не хватает полотна 
На губах сверкает иней, обжигает докрасна 
 
Припев: (тот же) 
 
1|----0-1--0-1--0-1-|----0-1--0-1--0-1-|--------5-5--5-5-|--------3-3--3-3-| 
2|--3-----3----3----|--3-----3----3----|--3--3-----------|--1--1-----------| 
3|------------------|------------------|-----------------|-----------------| 
4|-(0)--------------|------------------|-(0)-------------|-----------------| 
5|------------------|-(3)--------------|-----------------|-(3)-------------| 
 
1|----0-1--0-1--0-1-|----0-1--0-1--0-1-|------------------------| 
2|--3-----3----3----|--3-----3----3----|-----------10-10--10-10-| 
3|------------------|------------------|--12--12----------------| 
 
1|----------10-10--10-10-| 
2|-----------------------| 
3|-10--10----------------| 
 
Припев: (тот же) 
 
Буду бежать я... 
Кто-то же знает... 
Буду бежать я ...(3 р.) 
Кто-то же знает...
comments powered by Disqus
Наверх