Аккорды Alex Nebo - Дорогая

Добавлено: @romashka
Дата добавления: 09 Января 2020г.
Рейтинг:
0.0
Просмотров: 123
Транспонировать - +
Куплет 1:
E||-------------3---2---------|--------------2------------|
B||----------0----------0-----|----------3------3---------|
G||-------0-------------------|-------4-------------4-----|
D||----2----------------------|----4----------------------|
A||---------------------------|-2-------------------------|
E||-0-------------------------|---------------------------|

E||-------------3h5--3--0-----|-----------------------------|
B||----------1----------------|-----------------------------|
G||-------0-------------------|----------0--2---------------|
D||----2----------------------|-------0--------0------------|
A||-3-------------------------|----2--------------2---------|
E||---------------------------|-3---------------------3--2--|
 
Снова я рисую тебя
Дни и недели.
Словно вспоминаю опять,
Что не успели.
Снова за окном этот дождь,
И капли по лужам.
Только знаю ты не придешь,
Но я тебе нужен.

(Отсюда боем)

Em
Постой,
Bm                C
Кричу тебе, дорогая,
G
Сама того не зная,
G 
Ты хочешь быть
Em
Со мной,
Bm                C
Зажгу на небе звёзды,
G
Пока не поздно,
G
Вспомни обо мне.

Bm               C
Снова мне пустые слова
G           Em
Вместо ответа.
Bm               C
Ты скажи в чём виноват,
G           Em
Почему нас нету.
Bm               C
И одинокий ветер поёт
G         Em
Новые песни.
Bm                      C
Я знаю твоё сердце не лёд,
G                      Em
Мы всё равно будем вместе.

Em
Постой,
Bm                C
Кричу тебе, дорогая,
G
Сама того не зная,
G 
Ты хочешь быть
Em
Со мной,
Bm                C
Зажгу на небе звёзды,
G
Пока не поздно,
G
Вспомни обо мне.

Наверх