Аккорды Alicorn Funeral - Nekroponi II

Добавлено: @romashka
Дата добавления: 13 Мая 2022г.
Рейтинг:
0.0
Просмотров: 44
Транспонировать - +
Intro:

1|-----------------------------------
2|-----0--------0---0---0---0---0----
3|---0--------0---0---0---0---0---0--
4|-2--------2-------2---2---2---2---2
5|-----------------------------------
6|-----------------------------------

1|----------------------------            
2|-----3----3---3---3---3-----             
3|---0---0----0---0---0---0---              
4|-4-------4----4---4---4---4-               
5|----------------------------               
6|----------------------------
                                               3 раза
1|----------------------------
2|-----0----0---0---0---0-----
3|---2---2----2---2---2---2---               /
4|-0-------0----0---0---0---0-              /
5|----------------------------             /
6|----------------------------            /

1|-----------------------------------
2|-----------------------------------
3|------7-----7----7------6-----6---6
4|--5-5---5-5---5-----4-4---4-4---4--
5|-----------------------------------
6|-----------------------------------



1|-----------------------------
2|-----0---0---0---0---0-------
3|---0---0---0---0---0---0-----
4|-2-------2---2---2---2---2---
5|-----------------------------
6|-----------------------------

1|-----------------------------
2|-----3----3---3---3---3------
3|---0---0----0---0---0---0----
4|-4-------4----4---4---4---4--
5|-----------------------------
6|-----------------------------

1|-----------------------------
2|-----0----0---0---0---0------
3|---2---2----2---2---2---2----
4|-0-------0----0---0---0---0--
5|-----------------------------
6|-----------------------------

1|---------3------------2-------
2|-------3------------2---2---2-
3|-----4------------2-------2---
4|---5------------4-------------
5|------------------------------
6|-3------------2---------------



Em
Вы издевались надо мной,
G          F#m
Теперь вас время накажет.
Em
И по асфальту ваши рожи
G          F#m
Я жестоко размажу.

Em
Я умер, но не ушёл,
G         F#m
Теперь я Necropony.
Em
Я научился убивать,
G          F#m
Справляясь с своей болью!

Em G F#m x2

Em
Теперь они буду плакать,
G         F#m
А я буду смеяться. 
Em
Ведь они хотели на могилы
G          F#m
Мои испражняться.

Em
Сколько крови я пролил 
G           F#m
На могильную землю...
Em
Сколько тел я изъел, 
G             F#m
Сколько ещё колеблю...

Outro:

1|---------------------------------------------------------------   
2|---------------------------------------------------------------    
3|---------0----0----0----0---------------0---------------0------      4 раза
4|-----2-----2----2----0----0---------5-----5---5-----4-----4---4 
5|---2---2-----2----2----2----2-----5---5-----5-----4---4-----4--    /
6|-0------------------------------3---------------2--------------   /

1|------------------------------  
2|------------------------------   
3|---------0----0----0----0-----    2 раза
4|-----2-----2----2----0----0---
5|---2---2-----2----2----2----2-   /
6|-0----------------------------  /

1|--------------------------------------------------------------------------
2|--------------------------------------3----3----3----3----3----3---------- 
3|---------0----0----0----0----------0----0----0----0----0----0----0--------  
4|-----2-----2----2----0----0------2---2----2----2----2----2----2----2------   
5|---2---2-----2----2----2----2--3------------------------------------------    
6|-0------------------------------------------------------------------------
                                                                                2 раза
1|---------------------------------------------------------------0----------
2|---------5----5----5----5----5----5---------------------------0-----------    /
3|-----0-----0----0----0----0----0----0------------0-----------0------------   /
4|---4---4-----4----4----4----4----4----4------2-------2------2-------------  /
5|-5-----------------------------------------2---2---2---2---2-------------- /
6|-----------------------------------------0----------------0---------------
Наверх