Аккорды «Alkaline Trio»

Alkaline Trio
Alkaline Trio - мелодик-панк трио из Чикаго, сочетание простого панк-рока, альтернативы, порой тяжелой и драматической эмоциональной лирики с темами алкоголизма, страдания, смерти и черным юмором. Группа была основана в 1996 году с таким составом: Мэтт Скиба (вокал, гитара), Роб Доран (бас, вокал) и Гленн Портер (барабаны, вокал), все они родом из МакГенри (северо-западный пригород Чикаго), штат Иллинойс. В 1997 свет увидел первый EP группы, "Sundials". Вскоре за этим следовал уход Роба Дорана,… Читать полностью... Alkaline Trio - мелодик-панк трио из Чикаго, сочетание простого панк-рока, альтернативы, порой тяжелой и драматической эмоциональной лирики с темами алкоголизма, страдания, смерти и черным юмором. Группа была основана в 1996 году с таким составом: Мэтт Скиба (вокал, гитара), Роб Доран (бас, вокал) и Гленн Портер (барабаны, вокал), все они родом из МакГенри (северо-западный пригород Чикаго), штат Иллинойс. В 1997 свет увидел первый EP группы, "Sundials". Вскоре за этим следовал уход Роба Дорана, на замену которому пришел Дэн Андриано, бывший солист Tuesday и басист Slapstick, и записи продолжились. В 1998 году группа выпустила второй EP "For Your Lungs Only", благодаря которому получила множество поклонников на американском среднем западе. В том же году выходит первый полноценный альбом "Goddamnit", а затем "Maybe I'll Catch Fire" в 2000 (оба на Asian Man Records). Также в 2000 году вышел сборник предыдущих EP и синглов на одноименном альбоме. В 2001 на лейбле Vagrant Records выходит "From Here To infirmary", а чуть ранее этого события Гленн Портер был заменен Майком Фелумли. Альбом вошел в Billboard Top 200, продался количеством с шестизначным числом копий, а к синглам "Stupid Kid" и "Private Eye" были сняты клипы. Следующим альбомом был "Good Mourning", вышедший в 2003 одновременно с запуском сингла "We've Had Enough", таким же успешным, как и "Stupid Kid". Майк Фелумли был заменен бывшим барабанщиком The Suicide Machines Дереком Грантом, который так и остался в группе. Альбом немного отходил от предыдущего стиля группы и показал более высокий уровень работы, чем прежде. Все, что было сделано и записано после этого альбома, считается "второй волной" Alkaline Trio, так как в последствии музыка и тексты группы поменяются. 24 мая 2005 года вышел пятый альбом "Crimson" с синглом "Time To Waste", включающим записи с басистом групп Squirtgun и Common Rider Мэсс Джиорджини. Позже синглами вышли "Mecry Me" и "Burn". В декабре 2005 года вышло специальное переиздание альбома на двух дисках. Оно содержит демо, акустические и концертные версии некоторых песен. Кроме того, расширенная версия издания доступна для загрузки с текстами и комментариями участников группы об истории создания песен. В октябре 2006 анонсирован переход Alkaline Trio на лейбл V2 Records. Однако позднее лейбл объявил, что находится на реструктуризации, а все их артисты стали свободными агентами. В 2007 году вышел альбом "Remains", представляющий собой сборник синглов, би-сайдов, раритетов и лайвов группы, несколько каверов на такие группы, как Hot Water Music, John Crawford, The Damned. Релиз также содержал DVD с концертной записью выступления группы в туре The Occult Roots. Этим закончился их контракт с Vagrant Records. А 30 января 2007 на странице группы в MySpace их новым лейблом стал значиться Epic Records. В феврале 2008 Asian Man Records выпустил переиздание "Goddamned", содержащий ремиксованные и пересведенные оригинальные песни, четыре бонус-трека с демо-записей группы, а так же полнометражный документальный фильм о ранних днях группы. Релиз вызвал большой ажиотаж среди старых поклонников группы. 9 февраля 2008 года группа сообщила на своей странице в MySpace, что они три недели работали в студии звукозаписи над новым альбомом, не раскрывая ни самого названия альбома, ни даты его релиза. Позже через фан-клуб Blood Pact стала известна дата (1 июля 2008 года) и название (Agony & Irony) будущего альбома. 4 апреля для членов клуба был сделан эксклюзивный подарок - трек "In Vein" появился в MySpace на 24 часа. 6 мая был объявлен конкурс на лучшее исполнение "Love Love Kiss Kiss" (для чего были выложены официальные ноты), прежде чем ее споет сама группа. 1 июля состоялся долгожданный релиз Agony & Irony, который в первую неделю продаж добрался до 13 места Billboard Album Chart. Во время концерта в мае 2009 группа объявила, что контракта с Epic Records не было, и следующий релиз будет в этом же году на их собственном лейбле. Четыре песни ("This Addiction", "Dead On The Floor", "Dine, Dine My Darling", "Dorothy") были записаны в июле и показаны в туре с Saves the Day. 18 ноября официально появился лейбл группы - Heart & Skull, созданный совместно с Epitaph Records, дата следующего релиза - 23 февраля 2010, и название следующего трека - "The American Screamo". Специально для записи альбома группа вернулась в Чикаго, в Athlas Studios, родину их первых трех альбомов. 1 декабря группа рассказала магазину Rock Sound, что название нового альбома - "The Addiction". Альбом дебютировал на 11 месте Billboard Top 200, что является высшим результатом для группы за все время. Восьмой студийный альбом под названием "Damnesia" вышел 12 июля 2011 года и представлял собой "сборник любимых треков фанов, выбранных из обширного каталога песен группы и представленных в интимном полу-отключенном формате", содержащий две новые песни - "Olde English 800" и "I Remember a Rooftop" и кавер на песню группы Violent Femmes "I Held Her in My Arms". В поддержку альбома группа отправилась в пятнадцатый, юбилейный, тур по штатам. 14 июля 2012 года в интервью с The Punk Site Дэн Андриано рассказал, что группа приступит к записи девятого студийника в октябре. Дискография: Студийные альбомы: 1998 - Goddamnit 2000 - Maybe I'll Catch Fire 2001 - From Here to Infirmary 2003 - Good Mourning 2005 - Crimson 2008 - Agony & Irony 2010 - This Addiction 2011 - Damnesia Компиляции: 2000 - Alkaline Trio 2007 - Remains EP: 1998 - For Your Lungs Only 1999 - I Lied My Face Off 2002 - Alkaline Trio / Hot Water Music Синглы: 1997 - "Sundials" 2000 - Alkaline Trio / Blue Meanies 2001 - "Stupid Kid", "Private Eye", "Hell Yes" 2002 - "Halloween" 2003 - "We've Had Enough" 2005 - "Time to Waste", "Mercy Me" 2006 - "Burn" 2007 - Alkaline Trio / Smoking Popes 2008 - "Help Me", "Love Love, Kiss Kiss" 2010 - "This Addiction" Текущий состав: - Matt Skiba - вокал, гитары (1996 - по сей день) - Dan Andriano - вокал, бас-гитара (1996 - по сей день) - Derek Grant - ударные, перкуссия, бэк-вокал (2001 - по сей день) Бывшие участники: - Rob Doran - бас-гитара, бэк-вокал (1996 - 2001) - Glenn Porter - ударные, перкуссия (1996 - 2000) - Mike Felumlee - ударные, перкуссия (2000 - 2001) Скрыть...
Популярные аккорды Alkaline Trio:
алфавиту | просмотрам | случайно
  • Tuning standard. E,A,D,G happy :P
    
    Intro x2
    
    G[--------------------------------]
    D[--------------------------------]
    A[77777777777777772222222233333333]
    E[--------------------------------]
    
    Then...... x1
    
    G[------------00------------------]
    D[222220202222--20----------------]
    A[----------------2222222233333333]
    E[--------------------------------]
    
    Intro…
  • Intro
    
    G|---------------------------------------------------------------------------|
    D|---------------------------------------------------------------------------|
    A|----------------7777777---------------5555555----------------4444444-----|
    E|-22-00-22-00-22--------22-00-22-00-22---------22-00-22-00-22-------------|
    
    G|---------------------------------------------------------------------------|
    D|---------------------------------------------------------------------------|
    A|---------------------------------------------------------------------------|
    E|-22-44-55-44-77-55-44-00--------------------------------------------------|
    
    Verse
    
    G|---------------------------------------------------------------------------|
    D|---------------------------------------------------------------------------|
    A|--------------------------------------------------------------7777-5555----|…
  • Intro
    G:------------------------------------------|
    D:------------------------------------------|  
    A:-----7-7-7-6-6-6-4-4-------7-7-7-6-6-4-4--| 2x 
    E:-7-7-------------------4-4----------------| 
    Verse 
    G:----------------------|…
  • Intro
    --------------------------------
    --------------------------------
    ----------------99999988--------
    9999664499996644--------44444444
    7777442277774422--------22222222
    --------------------------------
    
    Verse
    
    “I Wrote…
  • Intro 2x:
    
    E |----------------------------------------------------------------------|
    B |----------------------------------------------------------------------|
    G |-----11-----11-----9-----7-----9s11-----11-----11---------9-------9---|
    D…
  • Intro
    D-------------------------------------------------------------------------------------------------
    A-------------------------------------------------------------------------------------------------
    E--77777777-4444-2222---77777777---4444---2222---77777777---4444---2222---0000000---2222---0000---…
  • Tuning: Standard
    
    e|-----|----------------------|-------------------------------------|
    B|--9--|----------------------|--7---7---7---7---7---7---7---7------|
    G|--x--|------------4---------|----4---4----------------------------|
    D|--6--|--6----2----4----4----|------------6---6---4---4---4---4----|
    A|-----|--6----2----2----4----|-------------------------------------|
    E|-----|--4----0---------2----|-------------------------------------|…
  • Intro/Verse
    
    e|---------------------------------------------------------------------------|
    B|---------------------------------------------------------------------------|
    G|-------------------44444444-55555555---------------------------------------|
    D|-55555555-77777777-44444444-55555555---------------------------------------|
    A|-55555555-77777777-22222222-33333333---------------------------------------|
    E|-33333333-55555555---------------------------------------------------------|
    
    Bridge
    
    e|---------------------------------------------------------------------------|
    B|--------And…
  • This is the intro...I did my best with the timing of it 
    
    G--------------------------------------------------------------------------- 
    D--------------------------------------------------------------------------- 
    A------------------------------------------------5--------------------------…
  • this is the major verse riff
    G|-------------------------------------------------------|
    D|---------4-----------4---4/5---------------------------|
    A|-2-2-2-2---2---2-2-2---2-------------5-----------0-0-0-|
    E|-----------------------------3-3-3-3---3--2-3-3--------|
    
    there…
  • INTRO
    
    G|-----------------------------------------------------------------|
    D|-----------------------------------------------------------------|
    A|-7-7-7-7-7-7-7-7-7-7-7-7-4-4-4-4-2-2-2-2-2-2-2-2-2-2-2-2-1-1-1-1-|
    E|-----------------------------------------------------------------|
    
    G|-----------------------------------------------------------------|
    D|-----------------------------------------------------------------|
    A|---------------------------------2-2-2-2-2-2-2-2-2-2-2-2-2-2-2-2-|
    E|-4-4-4-4-4-4-4-4-2-2-2-2-2-2-2-2---------------------------------|
    
    G|-----------------------------------------------------------------|
    D|-----------------------------------------------------------------|
    A|-7-7-7-7-7-7-7-7-7-7-7-7-4-4-4-4-2-2-2-2-2-2-2-2-2-2-2-2-1-1-1-1-|
    E|-----------------------------------------------------------------|
    
    G|---------------------------------------------------------------|
    D|---------------------------------------------------------------|
    A|---------------------------------2-2-2-2-2-2-2-2-2-2-2-2-2/12-|
    E|-4-4-4-4-4-4-4-4-2-2-2-2-2-2-2-2-------------------------------|
    
    FIRST…
  • Intro
    
    G---------------------------------------------------------------------------------------¦
    D---------------------------------------------------------------------------------------¦
    A---------0000-0---2-3-2-0---------33333333---------------------------------------------¦…
  • intro
    E-------------------------------------------------------------------------------------------------------------------------------]
    A-44xxxxxx-44xxxxxx----------44xxxxxx-44xxxxxx----------44xxxxxx-44xxxxxx----------44xxxxxx-44xxxxxx----------------------------]
    D-66xxxxxx-66xxxxxx----------66xxxxxx-66xxxxxx----------66xxxxxx-66xxxxxx----------66xxxxxx-66xxxxxx----------44xxxxxx-44xxxxxx-]
    G-66444444-66444444----------66444444-66444444----------66444444-66444444----------66444444-66444444----------66xxxxxx-66xxxxxx-]
    B---444444---444444------------444444---444444------------444444---444444------------444444---444444------------444444---444444-]
    E---445544---445544------------445544---445544------------445544---445544------------445544---445544------------445544---445544-]
    
    
    verse…
  • Chords used
        A     C#    E    B
    e|-------------------------|
    B|-------------------------|
    G|--2/----6-----9----/4----|
    D|--2/7---6---2/9---9/4----|
    A|--0/7---4---2/7---9/2----|
    E|----5-------0/----7------|
    
    Intro:
    
    Guitar…
  • Intro:
    ------------------------------------------------------|
    ------------------------------------------------------|
    --------------10-10-10-10----------------10-10-10-10--|
    -10-10-10-10--10-10-10-10---10-10-10-10--10-10-10-10--|
    -10-10-10-10--7--7--8--8----10-10-10-10--7--7--8--8---|
    -8--8--8--8-----------------8--8--8--8----------------|…
  • Intro
    
    e|---------------------------------------------------------------------------------|
    B|---------------------------------------------------------------------------------|
    G|-9-9-9-9-9--14-14-14-14--13-13--11--13-13-13-13--16-16--14-14--13-13-11-11-11-11-|
    D|-9-9-9-9-9--x--x--x--x---x--x---x---x--x--x--x---x--x---x--x---x--x--x--x--x--x--|
    A|-7-7-7-7-7--12-12-12-12--11-11--9---11-11-11-11--14-14--12-12--11-11-9--9--9--9--|
    E|---------------------------------------------------------------------------------|
    
    
    Verse…
  • Intro/Verse
    |--------------------------------|
    |--------------------------------|
    |66666666666666667777777777779977|
    |77777777777777777777777777777777|
    |00000000000000000000000000000000|
    |--------------------------------|
    
    End…
  • Intro/Verse
    -------------------------------------------------------------|
    -------------------------------------------------------------|
    -------------------------------------------------------------| 2x
    --9-9-9-9-9-------------9-9-9-9-9----------------------------|
    --9-9-9-9-9--7-7-7-7-7--9-9-9-9-9--7-7-7-7-7-----------------|
    --7-7-7-7-7--7-7-7-7-7--7-7-7-7-7--7-7-7-7-7-----------------|…
  • 1-----------------------------------------------------------
    2-----------------------------------------------------------
    3-----------------------------------------------------------
    4-12-12-12-xx-12-12-12-12-xx-12-12-12-12xx12-12-12-12-------
    5-12-12-12-xx-12-12-12-12-xx-12-12-12-12xx12-12-12-12-------
    6-10…
  • Intro:
    -----------------------------------------------------|
    -----------------------------------------------------|
    -----------------------------------------------------|
    -2-2-3-3-3-3--2-2-3-3-3-3--2-2-3-3-3-3--2-2-3-3-3-3--|
    -3-3-3-3-3-3--3-3-3-3-3-3--3-3-3-3-3-3--3-3-3-3-3-3--|
    -----------------------------------------------------|…
  • INTRO
    e-------------------------------------------------------|
    b-------------------------------------------------------|
    g--9997775554442200----10101010101010101010101010101010-|
    d----------------------10101010101010101010101010101010-|…
  • Intro
    E---------------------------
    B---------------------------
    G-------------2----4--------
    D---2---------2----4--------
    A---2---------0----2--------
    E---0-----------------------
    
    
    Verse (Palm Muted)
    E--------------------------------------------------------
    B--------------------------------------------------------
    G----------------------22222222---44444444---------------
    D---2222222222222222---22222222---44444444---------------
    A---2222222222222222---00000000---22222222---------------
    E---0000000000000000-------------------------------------
    
    Chorus
    E--------------------------------------------------------
    B--------------------------------------------------------
    G---66666666--------------99999999-----------------------
    D---66666666---77777777---99999999---99999999------------
    A---44444444---77777777---77777777---99999999------------
    E--------------55555555--------------77777777------------
    
    Bridge
    E--------------------------------------------------------
    B--------------------------------------------------------
    G----------------------22222222---44444444---------------
    D---2222222222222222---22222222---44444444---------------
    A---2222222222222222---00000000---22222222---------------
    E---0000000000000000-------------------------------------…
  • Intro 
    e|----------------------------------------------------| 
    B|----------------------------------------------------| 
    G|----------------------------------------2-----------| 
    D|---9999--11-11-11-11----7-x-6-x-7-x-6-x-2-----------|…
  • Intro Guitar 1 (4x)
    |----------------------------|
    |----------------------5-----|
    |-66-44-7-44-666-66-44---44-6|
    |----------------------------|
    |----------------------------|
    |----------------------------|
    
    Guitar 2 (4x)
    |------------------------------------|
    |------------------------------------|
    |-6666666666666666----------99999999-|
    |-6666666666666666-77777777-99999999-|
    |-4444444444444444-77777777-77777777-|
    |------------------55555555----------|
    
    Guitar…
  • Moderate distortion, Standard Tuning (e B G D A E)
    
    Intro
    
    e|---------------------------------------------------------------------| 
    B|---------------------------------------------------------------------| 
    G|-5-5-5-5-5-5-5-5-----------------------------------------------------|…
  • ------------------------------------------------------------------------------
    -----7-7-----7-7-----7-7-----7-7-----7-7-----7-7-----7-7-----7-7--------------
    -0-0-----0-0-----4-4-----4-4-----5-5-----5-5-----5-5-----5-5------------------
    ------------------------------------------------------------------------------…
  • Intro:
    Guitar 1
    -------------|
    -------------|
    -7--7--------|
    -7--7----7---|
    -5--6----7---|
    ---------5---|
    Guitar 2                                                                              
    -------------|
    -------------|
    -7--6--7/9---|
    -------------|
    -------------|
    -------------|…
  • Intro & Verse:
    ---------------------------------------------------------|
    ---------------------------------------------------------|
    --9-9-9-9-x-x--9-9-9-9-x-x--9-9-9-9---7-7-7-7---9-9-9-9--|
    --7-7-7-7-x-x--7-7-7-7-x-x--7-7-7-7---7-7-7-7---9-9-9-9--|
    --0-0-0-0-x-x--0-0-0-0-x-x--0-0-0-0---5-5-5-5---7-7-7-7--|
    ---------------------------------------------------------|…
  • INTRO
    G|---------------------------------------------------------------------------|
    D|-x6/-----------6---6-------------------------------------------------------|
    A|-----4-44-4444---4---4-----------------------------------------------------|
    E|---------------------------------------------------------------------------|…
  • CHORUS
    e|---------------------------------------------------------------| 
    B|---------------------------------------------------------------| 
    G|----------------999999999999999--------------------------------| 
    D|--99999--88888--999999999999999--99999--88888--22222222222222--|…
  • Intro:
    --------------------------------------------------|
    --------------------------------------------------|
    -9-9-9-9-9--9-9-9-9-9--9-9-9-9-9-----9-9-9-9-9----|
    -9-9-9-9-9--7-7-7-7-7--9-9-9-9-9--9--9-9-9-9-9----|
    -7-7-7-7-7--0-0-0-0-0--7-7-7-7-7--9--7-7-7-7-7----|
    ----------------------------------7---------------|
    
    
    Verse:…
  • Intro 
    G|-----------------------------------------------------------| 
    D|---------------------------7-7-6---7-7-6---7-7-6---7-7-6---| 
    A|-7-7-7-7-7-7-7-7-11-11-9-9-------9-------9-------9-------9-| 
    E|-----------------------------------------------------------|…
  • Intro
    {a}
    E----------------------------------------
    B----------------------------------------
    G----------------------------------------
    D--6-6-6-6-6-6-6-6--4-4-4-4-2-2-2-2------
    A--4-4-4-4-4-4-4-4--0-0-0-0-0-0-0-0------
    D----------------------------------------
    {b}
    E------------------------------------------
    B------------------------------------------
    G------------------------------------------
    D--4-4-4-4-4-4-4-4--6-6-4-4-1-1-2-2--------
    A--2-2-2-2-2-2-2-2--0-0-0-0-0-0-0-0--------
    E------------------------------------------
    {c}
    E----------------------------------------
    B----------------------------------------
    G----------------------------------------
    D--6-6-6-6-6-6-6-6--4-4-4-4-2-2-2-2--0~--
    A--4-4-4-4-4-4-4-4--0-0-0-0-0-0-0-0--2~--
    E------------------------------------0~--…
  • Intro/Verse
    e|------------------------------------------------------------|
    B|------------------------------------------------------------|
    G|---------------9-9-9-9-11-11-11-11-12-12-12-12-12-12-12-12--|
    D|---------------9-9-9-9-11-11-11-11-12-12-12-12-12-12-12-12--|
    A|---------------7-7-7-7-9--9--9--9--10-10-10-10-10-10-10-10--|
    E|--3/23-----------------------------------------------------|…
  • Intro
    |-----------------------------------------------------
    |-----------------------------------------------------
    |-6-6-6-6-6-4-2-2-2-2-2-2-2-2-2-7-7-7-7-7-7-7-7-7-7-7-
    |-6-6-6-6-6-4-2-2-2-2-2-2-2-2-7-7-7-7-7-7-7-7-7-7-7-7-
    |-4-4-4-4-4-2-0-0-0-0-0-0-0-0-5-5-5-5-5-5-5-5-5-5-5-5-
    |-----------------------------------------------------…
  • Intro 
    G|---------------------------------------------------------------------------| 
    D|---------------------------------------------------------------------------| 
    A|-2>---222222222222---------------------------------------------------------|…
  • Verse 
    e|---------------------------------------------------------------------------| 
    B|---------------------------------------------------------------------------| 
    G|---------------------------------9------------------------------------9----|…
  • Intro:
    ---------------------------------|
    ---------------------------------|
    -7-7-7-7-------------------------|
    -7-7-7-7--7-7-7-7--5-5-5-5-5-5---|
    -5-5-5-5--7-7-7-7--5-54-4/5-5---|
    ----------5-5-5-5--3-3-3-3-3-3---|…
  • Intro/Verses
    e|------------------------------------------------------------|
    B|------------------------------------------------------------|
    G|------------------------------------------------------------|
    D|9--9--9--10-10-10-9--10-9-9-9-10-10-10-9-10-9-9-9-9-9-9-9-9-|
    A|10-10-10-10-10-10-10-10-0-0-0-0--0--0--0--0-7-7-7-7-7-7-7-7-|
    E|------------------------------------------------------------|…
  • Intro: just pick scrape (listen to the cd for how long)
    e|---------------------------------------------------------------------------
    B|---------------------------------------------------------------------------
    G|---------------------------------------------------------------------------
    D|---------------------------------------------------------------------------
    A|---------------------------------------------------------------------------
    E|---------------------------------------------------------------------------
    
    Verse
    e|---------------------------------------------------------------------------
    B|---------------------------------------------------------------------------
    G|---------------------------------------------------------------------------…
  • Intro/Verse Part 1 (When was it...) x2
    
    G-----------------------------------
    D-77xx66xx44x222--------------------
    A----------------4h5555555 4h5555555
    E-----------------------------------
    
    Intro/Verse Part 2 (Why is it...)…
  • Intro/verse
    G|---------------------------------------------------------------------X6
    D|---------------------------------------------------------------------
    A|----------------------------55555555----------------------------
    E|--55555555--44444444-------------------------------------------
    
    PRE-…
  • Intro-
    
    e:-----------------------------------------------------------------|
    b:-----------------------------------------------------------------|
    g:-9-9-9-9-9-9-9-9-9-9-9-9-9-9-9-9-7-7-7-7-7-7-7-7-7-7-7-7-7-7-7-7-|
    d:-6-6-6-6-6-6-6-6-7-7-7-7-7-7-7-7-7-7-7-7-7-7-7-7-6-6-6-6-6-6-6-6-|
    a:-----------------------------------------------------------------|
    e:-----------------------------------------------------------------|
    
    e:-----------------------------------------------------------------|
    b:-----------------------------------------------------------------|
    g:-4-4-4-4-4-4-4-4-6-6-6-6-6-6-6-6-7-7-7-7-7-7-7-7-7-7-7-7-7-7-7-7-|
    d:-4-4-4-4-4-4-4-4-6-6-6-6-6-6-6-6-7-7-7-7-7-7-7-7-7-7-7-7-7-7-7-7-|
    a:-2-2-2-2-2-2-2-2-4-4-4-4-4-4-4-4-5-5-5-5-5-5-5-5-5-5-5-5-5-5-5-5-|
    e:-----------------------------------------------------------------|
    
    Play…
  • INTRO AND VERSE
    
    e [------------------------------------------------------------------------]
    B [------------------------------------------------------------------------]
    G [-9----2----4----9----7----5----7----9-9-9-9-9-9-9-9-9-9-9---------------]
    D…
  • Intro:
    
    E----------------------------------------------------------------
    B----------------------------------------------------------------
    G-----11-11-12-12-11-11-5-------4-4-4-4-4-4-4-4-5-5-5-5-5-5-5-5--
    D-2-2--x--x--x--x--x--x-x-------4-4-4-4-4-4-4-4-5-5-5-5-5-5-5-5--
    A-2-2--9--9-10-10--9--9-7-------2-2-2-2-2-2-2-2-3-3-3-3-3-3-3-3--…
  • Chord chart
       
       A5 B5 C#5 C#o D#o Eiio F#o  G#o Aiio
    e|------------------------------------------|
    b|------------------------------------------|
    g|-2--4--6---6---8---9-----11--13---14------|
    d|-2--4--6---x---x---x-----x---x----x-------|
    a|-0--2--4---4---6---7-----9---11---12------|
    e|------------------------------------------|
    
    Intro…
  • Verses
    
    E|------------------------------||
    B|------------------------------||
    G|--44444----------7777777777---||
    D|--44444--55555---7777777777---||
    A|--22222--55555---5555555555---||
    E|---------33333----------------||
    
    Chorus…
  • This is a long tab as I've put the lyrics underneath the chord changes, but it's
    a good song, not the best off the album, but still worth a good listen. enjoy
    
    |---------------
    |---------------
    |---7-7-----7-7-
    |-7-7-7--2--7-7-
    |-7-5-5--2--5-5-
    |-5------0------…
  • Intro
    
    e------------------------------------------
    B------------------------------------------
    G---9-----5---------5----7-----------------
    D---9-----5---------5----7-----------------
    A---7-----3---------3----5-----------------
    E------------------------------------------
    
    Main…
  • INTRO
    G|---------------------------------------------------------------------------------|
    D|------------------------------1-1-11-44p3-1-----11-33-44-4-4-33-3-3-11-1-1-------|
    A|-------------------------------------------22-44---------------------------44-4-4|
    E|--2-22-22-2-22-2-22-22-2-22-22---------------------------------------------------|…
  • Intro (Light Distortion)
    
    e|-------------------------------------------------|
    B|-------------------------------------------------|
    G|-------------------------------------------------|
    D|--------6--------4--------7--------4--------6----|
    A|--4--4-----4--4-----4--4-----4--4-----4--4-------|
    E|-------------------------------------------------|
    
    e|-------------------------------------------------|
    B|-------------------------------------------------|
    G|-------------------------------------------------|
    D|--------6--------4--------1--1--1--2--2--2--1----|
    A|--0--0-----0--0-----0--0--2--2--2--2--2--2--2----|
    E|-------------------------------------------------|…
  • Chords Used In The Song:
          A    Ei   E    D    F#m  Do  C#o   Bo   Ao   G#o
    e|--------------------------------------------------------|
    B|--------------------------------------------------------|
    G|----6----9----1----7----2----7----6----4----------------|
    D|----7----9----2----7----4----x----x----x----7-----6-----|
    A|----7----7----2----5----4----5----4----2----x-----x-----|
    E|----5---------0---------2-------------------5-----4-----|
    
    
    Intro:…
  • Intro:
    ----------------------------------------|
    ----------------------------------------|
    ----------------------------------------|
    -2-2-2-2--2-2--9-9/11-11/13-13/14-14----|
    -2-2-2-2--2-2--x-x-x--x--x--x--x--x-----|
    -0-0-0-0--0-0--7-7/9--9-/10-10/12-12----|…
  • Intro
    |--------------------------------------------------------------------------|
    |--------------------------------------------------------------------------|
    |----------------------------------------------976-------------------------|
    |1111111212121111111212127799111111121212777999000-111111121212111111121212|
    |0-0-0-0-0-0-0-0-0-0-0-0-00009-9-9-9-9-9-000000----0-0-0-0-0-0-0-0-0-0-0-0-|
    |--------------------------------------------------------------------------|
    Intro…
  • Intro
    |-------------------------------------------|
    |-------------------------------------------|
    |--------2------------22222222-44444444-----| repeat 2x
    |222222--2---22222222-22222222-44444444-----|
    |222222--0---22222222-00000000-22222222-----|
    |000000------00000000-----------------------|
    
    |----------------------------------------------------------------|
    |----------------------------------------------------------------|
    |---------66666666-99999999-66666666-99999999-66666666-----------|
    |22222222-66666666-99999999-66666666-99999999-66666666-22222222--|
    |00000000-44444444-77777777-44444444-77777777-44444444-22222222--|
    |00000000----------------------------------------------00000000--|
    
    |-------------------------------------------------|
    |-------------------------------------------------|
    |-6666------6666-9999-6666-------44444444---------|
    |-6666-7777-6666-9999-6666-7777--44444444---------|x2,second…
  • intro pt. 1 
    e|--------------------------------------------------------------------| 
    B|--------------------------------------------------------------------| 
    G|--------------------------------------------------------------------|…
  • Intro / verse
    e|------------------------------------------------------------------------ 
    B|------------------------------------------------------------------------ 
    G|--7----------------------7----------------------------------------------…
Наверх