Аккорды Alternosfera - Femeia Nordica

Добавлено: @romashka
Дата добавления: 08 Октября 2019г.
Рейтинг:
0.0
Просмотров: 16
Транспонировать - +
Intro:
D#               Gm             D#              Gm
e----------------------------------------------------------------
B----------------------------------------------------------------
G-----------------7-7-7-7-7-7-7------------------7-7-7-7-7-7-7--- x2
D-7-7-7-7-7-7-7-5--------------5-7-7-7-7-7-7-7-5---------------5-
A----------------------------------------------------------------
E----------------------------------------------------------------

D#              
---------------------------------
---------------------------------
--------------------------------- 
-7-7-7-7-7-7-7-7-8-8-8-7-7-7-7-5-  
---------------------------------
---------------------------------
 
Versul I:
Gm               D#
Stai, stai langa mine
Gm              D#
Stai, ca-n prima zi
            D#
Strop de lumina
                F
Sa-mi joci pe retina
           Cm
In casa pustie
         D# F
Cum as trai?

Versul II:
Gm                   D#
Fire-mi salbatic cersete
Gm                   D#
Pana la nord inc-un pas
           D#
Tot ce ingheata 
         F
Se si topeste
                Cm
Din tot ce mai doare 
             D# F
Doar tu ai ramas

Refren:
Cm      D#       Gm       F
Val de nervi purtat prin vene
Cm      D#      Gm       F
Te-a ascuns noaptea sub gene
Cm     D#   Gm     F
Capu-i rasucit in noduri
Cm      D#   Gm    F
Mi-a furat femeia nordul

Solo:
 Cm / D# / Gm / F 
-------------------------
---------------------10--
-11----10-11-10-8-8------ x4
-------------------------
-------------------------
-------------------------

Versul III:
Gm               D#
Nordul mi-aduce apusul
    Gm                  D#
Ninsoarea mi-asterne s-adorm
            D#
Imi joci pe retina
            F
Strop de lumina
           Cm
In casa pustie 
           D#  F
In zori am sa mor

Refren: 
Cm      D#       Gm       F
Val de nervi purtat prin vene
Cm      D#      Gm       F
Te-a ascuns noaptea sub gene
Cm     D#   Gm     F
Capu-i rasucit in noduri
Cm      D#   Gm    F
Mi-a furat femeia nordul

Solo:
 Cm / D# / Gm / F
-------------------------
---------------------10--
-11----10-11-10-8-8------ x4
-------------------------
-------------------------
-------------------------

Cm      D#   Gm    F
Mi-a furat femeia nordul
Cm      D#   Gm    F
Mi-a furat femeia nordul
Cm      D#   Gm    F
Mi-a furat femeia nordul
Cm      D#   Gm    F
Mi-a furat femeia nordul
comments powered by Disqus
Наверх