Аккорды «Amen»

Amen
Группа "Amen", исполняющая кровоточащий панк-метал, обязана своему появлению на свет ветерану калифорнийской сцены Кейси Кэосу (Кейси Хмелинский; экс-"Christian death", "Disorderly conduct"). В проект, основанный в 1994 году, также вошли Пол Фиг (гитара), Шэннон Ларкин (ударные, экс-"Ugly kid Joe", "Wrathchild America") и два бывших участника "Snot" – Сонни Мэйо (гитара) и Джон "Тумор" Фанесток (бас). В 1995-м музыканты выпустили свой первый альбом, "Slave", изданный небольшой фирмой "Drag-U-La".… Читать полностью... Группа "Amen", исполняющая кровоточащий панк-метал, обязана своему появлению на свет ветерану калифорнийской сцены Кейси Кэосу (Кейси Хмелинский; экс-"Christian death", "Disorderly conduct"). В проект, основанный в 1994 году, также вошли Пол Фиг (гитара), Шэннон Ларкин (ударные, экс-"Ugly kid Joe", "Wrathchild America") и два бывших участника "Snot" – Сонни Мэйо (гитара) и Джон "Тумор" Фанесток (бас). В 1995-м музыканты выпустили свой первый альбом, "Slave", изданный небольшой фирмой "Drag-U-La". Однако прошло еще больше трех лет, прежде чем команде удалось сделать серьезный прорыв. В 1999-м группа подписала контракт со свежеиспеченным лейблом "I Am" (подразделение "Roadrunner records") и отправилась в студию. Руководить сессиями взялся специалист по ню-металлу Росс Робинсон. Продюсер много повидал за свою карьеру, но даже его повергали в шок проделки Кейси. Для получения концертного драйва вокалист запросто мог устроить себе кровопускание прямо в студии. В результате на таких треках как "Coma America" и "Whores of Hollywood" можно было услышать реальную невыносимую боль. Последовавшее турне в компании со "Slipknot", "Coal chamber" и "Dope" не обошлось без скандалов. Примером может служить случай, когда Кейси был арестован за то, что расколотил оборудование "Dope". С лейблом у группы тоже постоянно происходили какие-нибудь инциденты, и "Roadrunner", не выдержав такого поведения своих подопечных, лишил их контракта. Однако без крыши "Amen" находились недолго, и вскоре коллектив заключил сделку с "Virgin records". Вновь спродюсированный Робинсоном, очередной альбом имел провокационное название "We have come for your parents". С пластинки, на обложке которой красовались четверо типов с окровавленными топорами, во всю мощь звучали песни, обличавшие потребительское общество и церковных деятелей. После выхода диска у "Amen" опять начались проблемы с лейблом, вылившиеся на этот раз во внутрикомандные разборки. Первым не выдержал накалившейся обстановки Пол Фиг. Он хлопнул дверью, а вскоре его примеру последовали и остальные партнеры Кейси. Оставшийся в одиночестве Кэос занялся поисками новой крыши и с помощью сессионных музыкантов начал готовить материал для следующего диска. Когда альбом был уже почти готов, его согласился издать Дарон Малакян из "System of a Down", который только что организовал свою рекорд-фирму. За год до выхода "Death before musick" компания "Refuse music" выпустила лимитированный сборник би-сайдов и раритетов. "Join, or die" был напечатан тиражом в 2000 копий и распространялся только на концертах "Amen". В том же 2003-м, когда группа гастролировала в Британии, ее выступления были сняты на видео. На следующий год из этих материалов был сделан DVD "Caught in the act", а в 2005-м вышел аудио-эквивалент под названием "Gun of a preacher man". Скрыть...
Популярные аккорды Amen:
алфавиту | просмотрам | случайно
  • INTRO LEAD:
    e|----|
    B|-10-| Played in verses also. Effected, and I think it's a phaser
    G|-12-|  but I'm not sure.
    D|----|
    A|----|
    D|----|
    
    INTRO FILL:
    e|-----------|
    B|-----------|
    G|-----------|
    D|-----------|
    A|-0-1p0-1p0-|
    D|-0-1p0-1p0-|
    
    VERSE…
  • Intro
              
              |---------|
              |---------|
              |--8----7-|
              |--8----7-|
              |--6----5-|
              |---------|
              
              Pre-Chorus
              
              |---------------------|----------------------|…
  • e|----------------------------------------------------------0-0-0-0----------
    B|----------------------------------------------------------0-0-0-0----------
    G|----------------------------------------------------------0-0-0-0----------
    D|---------------------------------------------------------------------------
    A|---------------------------------------------------------------------------
    E|-0-0-7-0-5-0-0-4-0-3-0-2-0-1-1-1-then-0-0-7-0-5-0-0-4-0-3-7-7-7-7----------
    
    e|---------------------------------------------------------------------------
    B|---------------------------------------------------------------------------
    G|---------------------------------------------------------------------------
    D|-2----3-----0--------------------------------------------------------------
    A|-2----3-----0--------------------------------------------------------------
    E|-0....1.....-----verse…
  • Guitar 1
    
    intro riffs (both guitar)
    
    e----------------------------------------------------------------
    b----------------------------------------------------------------
    g----------------------------------------------------------------
    d----------------------------------------------------------------
    a----------------------------------------------------------------
    d---7-0-3-5-0-33-0---4…
  • Intro
    E|--------------------------------------------------
    B|--14-14-14-14-14-14-14-14-14-14-14-14-14-14-14-14-
    G|--x--x--x--x--x--x--x--x--x--x--x--x--x--x--x--x--
    D|--11-11-11-11-11-11-11-11-11-11-11-11-11-11-11-11-
    A|--------------------------------------------------
    D|--------------------------------------------------
    
    Gtr…
  • Tuning: Drop D [D,A,D,G,b,e]
    Intro:
    e|---------------------------|
    b|---------------------------|
    G|---------------------------|
    D|---------------------------|
    A|---------------------------|
    D|-7777-10-11/1410-55555555-|
    
    Verse:
    e|---------------------------|
    b|---------------------------|
    G|---------------------------|
    D|---------------------------|
    A|-7777-10-11/1410-55555555-|
    D|-7777-10-11/1410-55555555-|
    
    Chorus:…
  • E-------------------------------------------
    B-------------------------------------------
    G-------------------------------------------
    D--0000-----0000-------0000------0000-------
    A--0000-----0000-------0000------0000-------
    D--0000-----0000-------0000------0000-------
    
    
    Main…
  • Eirst Semi-Riff
    A:-------------------------
    B:-------------------------
    G:-------------------------
    D:0-7-7-7-6-0-7-7-7-6------
    A:0-5-5-5-6-0-5-5-5-6------
    D:0---------6-0----------6-
    
    the rest of the intro is just bass…
  • Tuning: Drop D [D,A,D,G,b,e]
    
    
    e|--------|
    b|--------|
    G|--------|
    D|--5-7---|repeated a few times
    A|--------|
    D|--------|
    
    INTRO:
    e|--------------------------------------------------|
    b|--------------------------------------------------|
    G|--------------------------------------------------|
    D|-2202-02202-02202-02203-02202-02202-05555-03333---|
    A|-2202-02202-02202-02203-02202-02202-05555-03333---|
    D|-2202-02202-02202-02203-02202-02202-05555-03333---|
    
    
    VERSE:
    e|-------------------------------------------------------------------|
    b|---------------------------------------------------------7-bend-up-|
    G|-0--------------0----------0--------0-----------0------------------|
    D|--202-023202-02--202-023202-20-(x3)--202-023202--02--202-----------|
    A|-------------------------------------------------------------------|
    D|-------------------------------------------------------------------|
    
    cHORUS:
    e|--------------------------------------------------|
    b|--------------------------------------------------|
    G|--------------------------------------------------|
    D|-2202-02203-02202-02203-02202-02203-02202-02203---|
    A|-2202-02203-02202-02203-02202-02203-02202-02203---|
    D|-2202-02203-02202-02203-02202-02203-02202-02203---|
    
    CONT..
    e|-------------------------------------------------|
    b|-------------------------------------------------|
    G|-------------------------------------------------|
    D|--55555555-77777777-3333333333333330-------------|
    A|--55555555-77777777-3333333333333330--(x2)-------|
    D|--55555555-77777777-3333333333333330-------------|
    
    INTRO:
    e|--------------------------------------------------|
    b|--------------------------------------------------|
    G|--------------------------------------------------|
    D|-2202-02202-02202-02203-02202-02202-05555-03333---|
    A|-2202-02202-02202-02203-02202-02202-05555-03333---|
    D|-2202-02202-02202-02203-02202-02202-05555-03333---|
    
    2ND…
  • TUNING: Drop D ( D A D G B E )
    
    
    INTRO & MAIN RIFF 0:00/0:17
    
    |-----------------------------------
    |-----------------------------------
    |-----------------------------------
    |----------6-6---6---------9-9------
    |--4-4---4-4-4---4-7-7---7-7-7-9-9--
    |--4-4---4---------7-7---7-----9-9--…
  • TUNING: Standard E ( E A D G B E )
    
    
    INTRO 0:00/0:08
    
    |------------------------------------
    |------------------------------------
    |------------------------------------
    |------------------------------------
    |--12-/-2--2-2--2-2--12-/-2--12-/-2--
    |----------0-0--0-0------------------
    
    
    MAIN…
  • Intro
    
    e --------------------------------|
    B --------------------------------|
    G --------------------------------|
    D --------------------------------|
    A --------------------------------|
    D --0---0---0-0---x---x---x-x-x---|
    
    e…
  • Intro
    
    e --------------------------------|
    B --------------------------------|
    G --------------------------------|
    D 3---x-x-3---3---x-x-3---3---x-x-|
    A ----x-x---------x-x---------x-x-|
    D --------------------------------|…
  • G (320033)
    G/F# (2x0033)
    Em (022000)
    Bm (x24432)
    C (x32010)
    D/F# (2x0232)
    C/d (x32030)
    D/F#/g (2x0233)
    
    (en las estrofas se juega en arpejios de cada nota)
    
    riff 1
    
    E|------------------------------------------------- 
    B|-------------------------------------------------…
  • MAIN RIFF
    E-----------------------------------|
    B-----------------------------------|
    G-----------------------------------|
    D--5-5--7-7-7-7-7-7-7-7-7-7-7-7-7-7-|
    A--3-3--5-5-5-5-5-5-5-5-5-5-5-5-5-5-|
    D-----------------------------------|…
  • intro
    
    e-0-1-0-2-2-2-2-2-2-2-2-2-2-2-2-2-------
    
    verse:
    a-4-4-4-4-2-3----------------
    e-2-2-2-2-0-1----------------
    
    i live ..
    cause i ...
    i lick ...
    cause i'm ...
    
    pre-chorus
    
    A5
    we can ...
    B5
    we can ...
    A5
    we can ...
    B5
    we…
  • Intro
              
              |----------------------------------|------------|
              |----------------------------------|------------|
              |----------------------------------|------------|
              |----------------------------------|-0--3--2--1-|…
  • Tuning: Drop D [D,A,D,G,b,e]
    Intro:
    e|----------------------------------|
    b|-----------------X3---------------|
    G|----------------------------------|
    D|----------------------------------|
    A|----------------------------------|
    D|-00-33-00-0-3-5-6---00-33-0-33-0-1|
    
    Verse:
    e|-------------------------|
    b|-------------------------|
    G|-------------------------|
    D|-x-x-x-x-x-x-x-x--3-3--6-|
    A|-x-x-x-x-x-x-x-x--3-3--6-|
    D|-x-x-x-x-x-x-x-x--3-3--6-|
    
    Chorus:			1st&2nd…
  • Tuning: Drop D [D,A,D,G,b,e]
    Intro:
    e|--------------------|--------|
    b|--------------------|--------|
    G|---7~--99999999etc.-|--------|
    D|-7-7~---------------|-5-0-7-2|
    A|-7-5~---------------|-5-0-7-2|
    D|-7------------------|-5-0-7-2|
    
    Verse:
    e|-------------------|
    b|-------------------|
    G|-------------------|
    D|-22222222-5-0-7-2--|
    A|-22222222-5-0-7-2--|
    D|-22222222-5-0-7-2--|x2
    
    then
    e|---------------------|
    b|---------------------|
    G|---------------7777--|
    D|-55555555-7777-7777--|
    A|-55555555-7777-5555--|
    D|-55555555-7777-------|
    
    Chorus:…
  • Tuning: Drop D [D,A,D,G,b,e]
    Intro:
    e|---------|
    b|--------o|
    G|---------|
    D|---------|
    A|-0--3-3-o|
    D|---------|   
    2nd guitar plays:
    e|------------------------------|
    b|------------------------------|
    G|------------------------------|
    D|------------------------------|
    A|------------------------------|
    D|-10~~~12~~~~13~~~~~~15~~~~~~--|
    
    
    verse:…
  • Capo en el primer traste:
    
    En toda la cancion es la misma secuencia:
    
     G - Em - A - D
    
     G    Em       A     D
     Es una tranquilidad
         G      Em       A    D
     saber que no me olvidaras
                 G          Em
     no encontrar…
  • Intro:
    
    e ----------------------------------------------------------------|
    B ----------------------------------------------------------------|
    G ----------------------------------------------------------------|
    D 2---2-----------2---2-----------2---2-----------2---2-----------|
    A…
  • intro
    
    gtr 1
    E-------------------------------------------------------
    B-------------------------------------------------------
    G-------------------------------------------------------
    D--0------------5-------------5-------------5-----------
    A--0------5-6-7---------5-6-7---------5-6-7-------------
    D--0--5-7---------0-5-7---------0-5-7---------5-5-5-5-0-
    
    end…
  • Tuning: Drop D [D,A,D,G,b,e]
    intro
    e|----------------|
    b|----------------|
    G|----------------|
    D|----------------|
    A|-0-6-5----------|
    D|-0-----0-6-5-3--|
    
    Riff1:THIS IS THE START OF A MASSACRE!
    e|-----------------------------------|
    b|-----------------------------------|
    G|---------------V-------V-----------|
    D|-0-0-x-x-0-0-x-x-0-0-x-x-0-1/121--|
    A|-0-0-x-x-0-0-x-x-0-0-x-x-0-1/121--|
    D|-0-0-x-x-0-0-x-x-0-0-x-x-0-1/121--|
    
    Riff2:
    e|-------------------------------------|
    b|-------------------------------------|
    G|-------------------------------------|
    D|-------5-5-------------5-5-----------|
    A|-0-0-x-3-3-x-3-3-0-0-x-3-3-x-3-3-----|
    D|-0-0-x-----x-3-3-0-0-x-----x-3-3-----|
    
    Riff3:
    e|---------------------------------------------------|
    b|---------------------------------------------------|
    G|---------------------------------------------------|
    D|-----------5-555-----------------10-10101010101010-|
    A|-0-0000000-3-333-3-333-0-0000000--8--8-8-8-8-8-8-8-|
    D|-0-0000000-------3-333-0-0000000-------------------|
    
    Break:
    e|----------------------------------------------------------------------|
    b|----------------------------------------------------------------------|
    G|----------------------------------------------------------------------|
    D|---14-14-----14-14-----14-14-----14-14-----15-15-----17-17-----18-18--|
    A|-0-12-12-0-0-12-12-0-0-12-12-0-0-12-12-0-0-13-13-0-0-15-15-0-0-16-16--|
    D|-0-------0-0-------0-0-------0-0-------0-0-------0-0-------0-0--------|
    
    After…
  • intro: open d on bass
    there is some weird bit on the guitar, but i'm yet to figure it out
    
    verse
    
    g----7--5----------------------------------------
    d----7--5----------------------------------------
    a----7--5----------------------------------------
    d------------------------------------------------
    
    alternate…
  • intro
    ~~~~~
    
    e;-------------------------------------------
    b;-------------------------------------------
    g;-------------------------------------------
    d;-------------------------------------------
    a;-0---0---0---0---0---0---0---0---0---------
    e;-0---0---0---0---0---0---0---0---0---------
    
    gtr…
  • These are all the different parts 
    
    G-------------
    D-------------
    A-------------
    E-2-0-2-0-3-0-
    
    before slow bit
    G----------------------
    D----------------------
    A----------------------
    E-2-1-0-2-1-0-2-0-3-0--
    
    G--------------------------
    D--------------------------
    A--------------------------
    E-1-0-2----2-----0------1--
    
    G---------------------------------------------
    D---------------------------------------------
    A---------------------------------------------
    E-3-3-3-3-3-4-4-4-4-4-4-8-8-8-8-8-1-1-1-1-1-1-…
  • intro
    ~~~~~
    feedback and...
    
    e;-----------------------------------------------
    b;-----------------------------------------------
    g;-----------------------------------------------
    d;------------------7~~~~5h6h5-7~~~~~~7~~~-------
    a;----------h2~p3~-------------------------------
    d;-2~-0~-3~-h2~p3~-------------------------------
    ^^(maximum…
  • rhythm
    
    e;-----------------------------------------------|
    b;-----------------------------------------------|
    g;-----------------------------------------------|
    d;-----------------------------------------------|
    a;-3~~--7~5~--9~-10~--12~~-----------------------|
    d;-3~~--7~5~--9~-10~--12~~-----------------------|
    
    lead…
  • Intro and main lead
    e;-----------------------------------------------------|
    b;-----------------------------------------------------|
    g;-----------------------------------------------------|
    d;-5-8-0-0-0-5-0-5-7-0-0-0-5-0-5-8-0-0-0-5-0-5-7-0-0-0-|
    a;-----------------------------------------------------|
    d;-----------------------------------------------------|
    
    First…
Наверх